Oops, an error
Loading. Please wait.

Put The Knife Away tab

16 views 12 this week
no commentswrite comment
1 2 3 4 5
3 more votes to show rating
add to favorites
×
Save as Personal and add changes to this tab that will be seen only by you. Learn more ›
×
You can save this tab as Personal to edit and correct it or add notes. All changes will be seen only by you. Learn more »
launch autoscroll
font size
0
reset
how to read this tab
guitar tuner
edit
Autoscroll
slow
fast
+/-
esc
set tempo
stop
Artist: Goldfinger
Song: Put The Knife Away
Album: The Knife [2017]

[Intro]
Guitar 1
          .           .           .           .           .           .           .           .
D#|-----------------------|-----------------------|-----------------------|-----------------------|
A#|-----------------------|-----------------------|-----------------------|-----------------------|
F#|-----------------------|-----------------------|-----------------------|-----------------------|
C#|-9--9--9-----6--6--6---|----7--7-----7--6--6---|-9--9--9-----6--6--6---|----7--7-----7--6--6---|
G#|-7--7--7-----7--7--7---|----7--7-----7--7--7---|-7--7--7-----7--7--7---|----7--7-----7--7--7---|
D#|-----------------------|-----------------------|-----------------------|-----------------------|

Guitar 1
          .           .           .           .           .           .           .           .
D#|-----------------------|-----------------------|-----------------------|-----------------------|
A#|-----------------------|-----------------------|-----------------------|-----------------------|
F#|-----------------------|-----------------------|-----------------------|-----------------------|
C#|-9--9--9-----6--6--6---|----7--7-----7--6--6---|-9--9--9-----6--6--6---|----7--7-----7--6--6---|
G#|-7--7--7-----7--7--7---|----7--7-----7--7--7---|-7--7--7-----7--7--7---|----7--7-----7--7--7---|
D#|-----------------------|-----------------------|-----------------------|-----------------------|
Guitar 2
   C#5                     C#5                     B5                      B5
          .           .           .           .           .           .           .           .
D#|-----------------------|-----------------------|-----------------------|-----------------------|
A#|-----------------------|-----------------------|-----------------------|-----------------------|
F#|-----------------------|-----------------------|-----------------------|-----------------------|
C#|-6--6--6-----6--6--6---|----6--6-----6--6--6---|-----------------------|-----------------------|
G#|-4--4--4-----4--4--4---|----4--4-----4--4--4---|-9--9--9-----9--9--9---|----9--9-----9--9--9---|
D#|-----------------------|-----------------------|-7--7--7-----7--7--7---|----7--7-----7--7--7---|

Guitar 1
   E5                      E5                      E5                      E5
D#|-----------------------|-----------------------|-----------------------|-----------------------|
A#|-----------------------|-----------------------|-----------------------|-----------------------|
F#|-9--9-----9--9--9-----9|-9--9-----9--9--9-----9|-9--9-----9--9--9-----9|-9--9-----9--9--9-----9|
C#|-9--9-----9--9--9-----9|-9--9-----9--9--9-----9|-9--9-----9--9--9-----9|-9--9-----9--9--9-----9|
G#|-7--7-----7--7--7-----7|-7--7-----7--7--7-----7|-7--7-----7--7--7-----7|-7--7-----7--7--7-----7|
D#|-----------------------|-----------------------|-----------------------|-----------------------|
Guitar Guitar 2
D#|-----------------------|-----------------------|-----------------------|-----------------------|
A#|12-12----12--9--9-----9|10-10----10--9--9-----9|12-12----12--9--9-----9|10-10----10--9--9-----9|
F#|-9--9-----9--9--9-----9|-9--9-----9--9--9-----9|-9--9-----9--9--9-----9|-9--9-----9--9--9-----9|
C#|-9--9-----9--9--9-----9|-9--9-----9--9--9-----9|-9--9-----9--9--9-----9|-9--9-----9--9--9-----9|
G#|-----------------------|-----------------------|-----------------------|-----------------------|
D#|-----------------------|-----------------------|-----------------------|-----------------------|

Guitar 1
   C#5                     C#5                     B5                      B5
D#|-----------------------|-----------------------|-----------------------|-----------------------|
A#|-----------------------|-----------------------|-----------------------|-----------------------|
F#|-6--6-----6--6--6-----6|-6--6-----6--6--6-----6|-----------------------|-----------------------|
C#|-6--6-----6--6--6-----6|-6--6-----6--6--6-----6|-9--9-----9--9--9-----9|-----------------------|
G#|-4--4-----4--4--4-----4|-4--4-----4--4--4-----4|-9--9-----9--9--9-----9|-9-9-9-9-9-9-9-9-9-9-9-|
D#|-----------------------|-----------------------|-7--7-----7--7--7-----7|-7-7-7-7-7-7-7-7-7-7-7-|
                                                                  Gallop PM¦---------------------¦
Guitar 2
D#|-----------------------|-----------------------|-----------------------|-----------------------|
A#|12-12----12--9--9-----9|10-10----10--9--9-----9|12-12----12--9--9-----9|10-10----10--9--9-----9|
F#|-9--9-----9--9--9-----9|-9--9-----9--9--9-----9|-9--9-----9--9--9-----9|-9--9-----9--9--9-----9|
C#|-9--9-----9--9--9-----9|-9--9-----9--9--9-----9|-9--9-----9--9--9-----9|-9--9-----9--9--9-----9|
G#|-----------------------|-----------------------|-----------------------|-----------------------|
D#|-----------------------|-----------------------|-----------------------|-----------------------|


[Verse]
Guitar 1
   E5                      E5                      E5                      E5
D#|-----------------------|-----------------------|-----------------------|-----------------------|
A#|-----------------------|-----------------------|-----------------------|-----------------------|
F#|-----------------------|-----------------------|-----------------------|----------------9--9--9|
C#|-9--9-----9--9--9-----9|-9--9-----9--9--9-----9|-9--9-----9--9--9-----9|-9--9-----9--9--9--9--9|
G#|-7--7-----7--7--7-----7|-7--7-----7--7--7-----7|-7--7-----7--7--7-----7|-7--7-----7--7--7--7--7|
D#|-----------------------|-----------------------|-----------------------|-----------------------|
 PM¦-------------------------------------------------------------------------------------¦
Guitar 2
D#|-----------------------|-----------------------|-----------------------|-----------------------|
A#|-----------------------|-----------------------|-----------------------|-----------------------|
F#|-----------------------|-----------------------|-----------------------|----------------9--9--9|
C#|-9--9-----9--6--6-----6|-7--7-----7--6--6-----6|-9--9-----9--6--6-----6|-7--7-----7--6--9--9--9|
G#|-7--7-----7--7--7-----7|-7--7-----7--7--7-----7|-7--7-----7--7--7-----7|-7--7-----7--7--7--7--7|
D#|-----------------------|-----------------------|-----------------------|-----------------------|
 PM¦-------------------------------------------------------------------------------------¦
   You say nothin' matters to me. You say we got broken history.

Guitar 1
   C#5                     C#5                     B5                      B5
D#|-----------------------|-----------------------|-----------------------|-----------------------|
A#|-----------------------|-----------------------|-----------------------|-----------------------|
F#|-----------------------|-----------------------|-----------------------|-----------------------|
C#|-6--6-----6--6--6-----6|-6--6-----6--6--6-----6|-----------------------|-----------------------|
G#|-4--4-----4--4--4-----4|-4--4-----4--4--4-----4|-9--9-----9--9--9-----9|-9--9-----9--9--9-----9|
D#|-----------------------|-----------------------|-7--7-----7--7--7-----7|-7--7-----7--7--7-----7|
 PM¦----------------------------------------------------------------------------------------------¦
Guitar 2
D#|-----------------------|-----------------------|-----------------------|-----------------------|
A#|-----------------------|-----------------------|-----------------------|-----------------------|
F#|-----------------------|-----------------------|-----------------------|-----------------------|
C#|-9--9-----9--6--6-----6|-7--7-----7--6--6-----6|-9--9-----9--6--6-----6|-----------------------|
G#|-7--7-----7--7--7-----7|-7--7-----7--7--7-----7|-7--7-----7--7--7-----7|-9--9-----9--9--9-----9|
D#|-----------------------|-----------------------|-----------------------|-7--7-----7--7--7-----7|
 PM¦----------------------------------------------------------------------------------------------¦
   Hold the knife, away from me

Guitar 1
   E5                      E5                      E5                      E5
D#|-----------------------|-----------------------|-----------------------|-----------------------|
A#|-----------------------|-----------------------|-----------------------|-----------------------|
F#|-----------------------|-----------------------|-----------------------|-----------------------|
C#|-9--9-----9--9--9-----9|-9--9-----9--9--9-----9|-9--9-----9--9--9-----9|-9--9-----9--9--9-----9|
G#|-7--7-----7--7--7-----7|-7--7-----7--7--7-----7|-7--7-----7--7--7-----7|-7--7-----7--7--7-----7|
D#|-----------------------|-----------------------|-----------------------|-----------------------|
Guitar 2
D#|-----------------------|-----------------------|-----------------------|-----------------------|
A#|-----------------------|-----------------------|-----------------------|-----------------------|
F#|-----------------------|-----------------------|-----------------------|-----------------------|
C#|-9--9-----9--6--6-----6|-7--7-----7--6--6-----6|-9--9-----9--6--6-----6|-7--7-----7--6--6-----6|
G#|-7--7-----7--7--7-----7|-7--7-----7--7--7-----7|-7--7-----7--7--7-----7|-7--7-----7--7--7-----7|
D#|-----------------------|-----------------------|-----------------------|-----------------------|
   You say I don't get how you think. You say you're closer to the brink

Guitar 1
   C#5                     C#5                     B5                      B5
D#|-----------------------|-----------------------|-----------------------|-----------------------|
A#|-----------------------|-----------------------|-----------------------|-----------------------|
F#|-----------------------|-----------------------|-----------------------|-----------------------|
C#|-6--6-----6--6--6-----6|-6--6-----6--6--6-----6|-----------------------|-----------------------|
G#|-4--4-----4--4--4-----4|-4--4-----4--4--4-----4|-9--9-----9--9--9-----9|-9--9-----9--9--9-----9|
D#|-----------------------|-----------------------|-7--7-----7--7--7-----7|-7--7-----7--7--7-----7|
Guitar 2
D#|-----------------------|-----------------------|-----------------------|-----------------------|
A#|-----------------------|-----------------------|-----------------------|-----------------------|
F#|-----------------------|-----------------------|-----------------------|-----------------------|
C#|-9--9-----9--6--6-----6|-7--7-----7--6--6-----6|-9--9-----9--6--6-----6|-9--9-----9--6--6-----6|
G#|-7--7-----7--7--7-----7|-7--7-----7--7--7-----7|-7--7-----7--7--7-----7|-7--7-----7--7--7-----7|
D#|-----------------------|-----------------------|-----------------------|-----------------------|
   Hold the knife, away from me


[Pre-Chorus]
Guitar 1
   A5                      A5
D#|-----------------------|-----------------------|
A#|-----------------------|-----------------------|
F#|-----------------------|-----------------------|
C#|-----------------------|-----------------------|
G#|-7--7--7--7--7--7--7--7|-7--7--7--7--7--7--7--7|
D#|-5--5--5--5--5--5--5--5|-5--5--5--5--5--5--5--5|
 PM¦----------------------------------------------¦
Guitar 2
D#|-----------------------|-------------x--x--x--x|
A#|-----------------------|-------------x--x--x--x|
F#|-7----------11---------|14-----------x--x--x--x|
C#|-x-----------x---------|-x-----------x--x--x--x|
G#|-5-----------9---------|12-----------x--x--x--x|
D#|-----------------------|-------------x--x--x--x|
   Not closer to my neck


[Chorus]
Guitar 1
   E5                      E5                      E5                      E5
                         .                                               .
D#|-----------------------|-----------------------|-----------------------|-----------------------|
A#|-----------------------|-----------------------|-----------------------|-----------------------|
F#|-----------------------|-----------------------|-----------------------|-----------------------|
C#|-2--2--2--2--2--2--2--2|----2--2--2--2--2--2--2|-2--2--2--2--2--2--2--2|----2--2--2--2--2--2--2|
G#|-2--2--2--2--2--2--2--2|----2--2--2--2--2--2--2|-2--2--2--2--2--2--2--2|----2--2--2--2--2--2--2|
D#|-0--0--0--0--0--0--0--0|----0--0--0--0--0--0--0|-0--0--0--0--0--0--0--0|----0--0--0--0--0--0--0|
   Always right you're never wrong. Telling me I don't belong.

Guitar 1
   E/G#                    E/G#                    A5                      B5
                         .                                .              .    .   
D#|-----------------------|-----------------------|-----------------------|-----------------------|
A#|-----------------------|-----------------------|-----------------------|-----------------------|
F#|-----------------------|-----------------------|-----------------------|-----------------------|
C#|-6--6--6--6--6--6--6--6|----6--6--6--6--6--6--6|-7--7--7-----7--7--7--7|----9-----9--9--9--9--9|
G#|-7--7--7--7--7--7--7--7|----7--7--7--7--7--7--7|-7--7--7-----7--7--7--7|----9-----9--9--9--9--9|
D#|-4--4--4--4--4--4--4--4|----4--4--4--4--4--4--4|-5--5--5-----5--5--5--5|----7-----7--7--7--7--7|
  Just put the knife away and try to listen, to listen

Guitar 1
   E5                      E5                      E5                      E5
                         .                                               .
D#|-----------------------|-----------------------|-----------------------|-----------------------|
A#|-----------------------|-----------------------|-----------------------|-----------------------|
F#|-----------------------|-----------------------|-----------------------|-----------------------|
C#|-2--2--2--2--2--2--2--2|----2--2--2--2--2--2--2|-2--2--2--2--2--2--2--2|----2--2--2--2--2--2--2|
G#|-2--2--2--2--2--2--2--2|----2--2--2--2--2--2--2|-2--2--2--2--2--2--2--2|----2--2--2--2--2--2--2|
D#|-0--0--0--0--0--0--0--0|----0--0--0--0--0--0--0|-0--0--0--0--0--0--0--0|----0--0--0--0--0--0--0|
Guitar 2 
D#|-----------------------|-----------------------|-----------------------|-----------------------|
A#|---12----10-----9----10|---12----10-----9----10|---12----10-----9----10|---12----10-----9----10|
F#|-9-----9-----9-----9---|-9-----9-----9-----9---|-9-----9-----9-----9---|-9-----9-----9-----9---|
C#|-----------------------|-----------------------|-----------------------|-----------------------|
G#|-----------------------|-----------------------|-----------------------|-----------------------|
D#|-----------------------|-----------------------|-----------------------|-----------------------|
   You say you changed you stayed the same. Always driving me insane.

Guitar 1
   E/G#                    E/G#                    A5                      B5
                         .
D#|-----------------------|-----------------------|-----------------------|-----------------------|
A#|-----------------------|-----------------------|-----------------------|-----------------------|
F#|-----------------------|-----------------------|-----------------------|-----------------------|
C#|-6--6--6--6--6--6--6--6|----6--6--6--6--6--6--6|-7--------7--------7---|(7)----------7--7--7--7|
G#|-7--7--7--7--7--7--7--7|----7--7--7--7--7--7--7|-7--------7--------7---|(7)----------7--7--7--7|
D#|-4--4--4--4--4--4--4--4|----4--4--4--4--4--4--4|-5--------5--------5---|(5)----------5--5--5--5|
Guitar 2
D#|-----------------------|-----------------------|-----------------------|-----------------------|
A#|---12----10-----9----10|---12----10-----9----10|-9--------9-------12---|(12)--------12-12-12-12|
F#|-9-----9-----9-----9---|-9-----9-----9-----9---|-9--------9-------11---|(11)--------11-11-11-11|
C#|-----------------------|-----------------------|-----------------------|-----------------------|
G#|-----------------------|-----------------------|-----------------------|-----------------------|
D#|-----------------------|-----------------------|-----------------------|-----------------------|
   Just put the knife away and try to listen, to listen


[Verse]
Guitar 1
   E5                      E5                      E5                      E5
D#|-----------------------|-----------------------|-----------------------|-----------------------|
A#|-----------------------|-----------------------|-----------------------|-----------------------|
F#|-----------------------|-----------------------|-----------------------|----------------9--9--9|
C#|-9--9--9--9--9--9--9--9|-9--9--9--9--9--9--9--9|-9--9--9--9--9--9--9--9|-9--9--9--9--9--9--9--9|
G#|-7--7--7--7--7--7--7--7|-7--7--7--7--7--7--7--7|-7--7--7--7--7--7--7--7|-7--7--7--7--7--7--7--7|
D#|-----------------------|-----------------------|-----------------------|-----------------------|
 PM¦-------------------------------------------------------------------------------------¦
   Never say sorry to me. Walkin on egg shells, can't breathe.

Guitar 1
   C#5                     C#5                     B5                      B5
D#|-----------------------|-----------------------|-----------------------|-----------------------|
A#|-----------------------|-----------------------|-----------------------|-----------------------|
F#|-----------------------|-----------------------|-----------------------|-----------------------|
C#|-6--6--6--6--6--6--6--6|-6--6--6--6--6--6--6--6|-----------------------|-9--------9--------9---|
G#|-4--4--4--4--4--4--4--4|-4--4--4--4--4--4--4--4|-9--9--9--9--9--9--9--9|-9--9--9--9--9--9--9--9|
D#|-----------------------|-----------------------|-7--7--7--7--7--7--7--7|-7--7--7--7--7--7--7--7|
 PM¦-----------------------------------------------------------------Gallop PM¦----¦   ¦----¦   ¦-¦
  Give my life back to me

Guitar 1
   E5                      E5                      E5                      E5
D#|-----------------------|-----------------------|-----------------------|-----------------------|
A#|-----------------------|-----------------------|-----------------------|-----------------------|
F#|-9--9--9--9--9--9--9--9|-9--9--9--9--9--9--9--9|-9--9--9--9--9--9--9--9|-9--9--9--9--9--9--9--9|
C#|-9--9--9--9--9--9--9--9|-9--9--9--9--9--9--9--9|-9--9--9--9--9--9--9--9|-9--9--9--9--9--9--9--9|
G#|-7--7--7--7--7--7--7--7|-7--7--7--7--7--7--7--7|-7--7--7--7--7--7--7--7|-7--7--7--7--7--7--7--7|
D#|-----------------------|-----------------------|-----------------------|-----------------------|
Guitar 2
D#|-----------------------|-----------------------|-----------------------|-----------------------|
A#|-----------------------|-----------------------|-----------------------|-----------------------|
F#|-----------------------|-----------------------|-----------------------|-----------------------|
C#|-9--9--9--9--6--6--6--6|-7--7--7--7--6--6--6--6|-9--9--9--9--6--6--6--6|-9--9--9--9--6--6--6--6|
G#|-7--7--7--7--7--7--7--7|-7--7--7--7--7--7--7--7|-7--7--7--7--7--7--7--7|-7--7--7--7--7--7--7--7|
D#|-----------------------|-----------------------|-----------------------|-----------------------|
  You live in darkness, no light. You scream at me and we fight

Guitar 1
   E5                      E5                      E5                      E5
D#|-----------------------|-----------------------|-----------------------|-----------------------|
A#|-----------------------|-----------------------|-----------------------|-----------------------|
F#|-6--6--6--6--6--6--6--6|-6--6--6--6--6--6--6--6|-----------------------|-----------------------|
C#|-6--6--6--6--6--6--6--6|-6--6--6--6--6--6--6--6|-9--9--9--9--9--9--9--9|-9--------9--------9---|
G#|-4--4--4--4--4--4--4--4|-4--4--4--4--4--4--4--4|-9--9--9--9--9--9--9--9|-9--9--9--9--9--9--9--9|
D#|-----------------------|-----------------------|-7--7--7--7--7--7--7--7|-7--7--7--7--7--7--7--7|
                                                                     Gallop PM¦----¦   ¦----¦   ¦-¦
Guitar 2
D#|-----------------------|-----------------------|-----------------------|-----------------------|
A#|-----------------------|-----------------------|-----------------------|-----------------------|
F#|-----------------------|-----------------------|-----------------------|-----------------------|
C#|-9--9--9--9--6--6--6--6|-7--7--7--7--6--6--6--6|-9--9--9--9--6--6--6--6|-9--------9--------9---|
G#|-7--7--7--7--7--7--7--7|-7--7--7--7--7--7--7--7|-7--7--7--7--7--7--7--7|-9--9--9--9--9--9--9--9|
D#|-----------------------|-----------------------|-----------------------|-7--7--7--7--7--7--7--7|
                                                                     Gallop PM¦----¦   ¦----¦   ¦-¦
  Hold my life and oversee.


[Pre-Chorus]
Guitar 1
   A5                      A5
D#|-----------------------|-----------------------|
A#|-----------------------|-----------------------|
F#|-----------------------|-----------------------|
C#|-----------------------|-----------------------|
G#|-7--7--7--7--7--7--7--7|-7--7--7--7--7--7--7--7|
D#|-5--5--5--5--5--5--5--5|-5--5--5--5--5--5--5--5|
 PM¦----------------------------------------------¦
Guitar 2
D#|-----------------------|-------------x--x--x--x|
A#|-----------------------|-------------x--x--x--x|
F#|-7----------11---------|14-----------x--x--x--x|
C#|-x-----------x---------|-x-----------x--x--x--x|
G#|-5-----------9---------|12-----------x--x--x--x|
D#|-----------------------|-------------x--x--x--x|
   I'm gonna lose my mind


[Chorus]
Guitar 1
   E5                      E5                      E5                      E5
                         .                                               .
D#|-----------------------|-----------------------|-----------------------|-----------------------|
A#|-----------------------|-----------------------|-----------------------|-----------------------|
F#|-----------------------|-----------------------|-----------------------|-----------------------|
C#|-2--2--2--2--2--2--2--2|----2--2--2--2--2--2--2|-2--2--2--2--2--2--2--2|----2--2--2--2--2--2--2|
G#|-2--2--2--2--2--2--2--2|----2--2--2--2--2--2--2|-2--2--2--2--2--2--2--2|----2--2--2--2--2--2--2|
D#|-0--0--0--0--0--0--0--0|----0--0--0--0--0--0--0|-0--0--0--0--0--0--0--0|----0--0--0--0--0--0--0|
   Always right you're never wrong. Telling me I don't belong.

Guitar 1
   E/G#                    E/G#                    A5                      B5
                         .                                .              .     .
D#|-----------------------|-----------------------|-----------------------|-----------------------|
A#|-----------------------|-----------------------|-----------------------|-----------------------|
F#|-----------------------|-----------------------|-----------------------|-----------------------|
C#|-6--6--6--6--6--6--6--6|----6--6--6--6--6--6--6|-7--7--7-----7--7--7--7|----9-----9--9--9--9--9|
G#|-7--7--7--7--7--7--7--7|----7--7--7--7--7--7--7|-7--7--7-----7--7--7--7|----9-----9--9--9--9--9|
D#|-4--4--4--4--4--4--4--4|----4--4--4--4--4--4--4|-5--5--5-----5--5--5--5|----7-----7--7--7--7--7|
  Just put the knife away and try to listen, to listen

Guitar 1
   E5                      E5                      E5                      E5
                         .                                               .
D#|-----------------------|-----------------------|-----------------------|-----------------------|
A#|-----------------------|-----------------------|-----------------------|-----------------------|
F#|-----------------------|-----------------------|-----------------------|-----------------------|
C#|-2--2--2--2--2--2--2--2|----2--2--2--2--2--2--2|-2--2--2--2--2--2--2--2|----2--2--2--2--2--2--2|
G#|-2--2--2--2--2--2--2--2|----2--2--2--2--2--2--2|-2--2--2--2--2--2--2--2|----2--2--2--2--2--2--2|
D#|-0--0--0--0--0--0--0--0|----0--0--0--0--0--0--0|-0--0--0--0--0--0--0--0|----0--0--0--0--0--0--0|
Guitar 2
D#|-----------------------|-----------------------|-----------------------|-----------------------|
A#|---12----10-----9----10|---12----10-----9----10|---12----10-----9----10|---12----10-----9----10|
F#|-9-----9-----9-----9---|-9-----9-----9-----9---|-9-----9-----9-----9---|-9-----9-----9-----9---|
C#|-----------------------|-----------------------|-----------------------|-----------------------|
G#|-----------------------|-----------------------|-----------------------|-----------------------|
D#|-----------------------|-----------------------|-----------------------|-----------------------|
   You say you changed you stayed the same. Always driving me insane.

Guitar 1
   E/G#                    E/G#                    A5                      B5
                         .
D#|-----------------------|-----------------------|-----------------------|-----------------------|
A#|-----------------------|-----------------------|-----------------------|-----------------------|
F#|-----------------------|-----------------------|-----------------------|-----------------------|
C#|-6--6--6--6--6--6--6--6|----6--6--6--6--6--6--6|-7--------7--------7---|(7)----------7--7--7--7|
G#|-7--7--7--7--7--7--7--7|----7--7--7--7--7--7--7|-7--------7--------7---|(7)----------7--7--7--7|
D#|-4--4--4--4--4--4--4--4|----4--4--4--4--4--4--4|-5--------5--------5---|(5)----------5--5--5--5|
Guitar 2
D#|-----------------------|-----------------------|-----------------------|-----------------------|
A#|---12----10-----9----10|---12----10-----9----10|-9--------9-------12---|(12)--------12-12-12-12|
F#|-9-----9-----9-----9---|-9-----9-----9-----9---|-9--------9-------11---|(11)--------11-11-11-11|
C#|-----------------------|-----------------------|-----------------------|-----------------------|
G#|-----------------------|-----------------------|-----------------------|-----------------------|
D#|-----------------------|-----------------------|-----------------------|-----------------------|
   Just put the knife away and try to listen, to listen


[Bridge]
Guitar 1
D#|-----------------------|-----------------------|-----------------------|-----------------------|
A#|-----------------------|-----------------------|-----------------------|-----------------------|
F#|-----------------------|-----------------------|-----------------------|-----------------------|
C#|-----------------------|-----------------------|-----------------------|-----------------------|
G#|----------7-----------7|----------7-----------7|----------7-----------7|----------7-----------7|
D#|-4--4--4-----4--4--4---|-4--4--4-----4--4--4---|-5--5--5-----5--5--5---|-5--5--5-----5--5--5---|
   Those words you can't take back. Always under attack

Guitar 1
D#|-----------------------|-----------------------|-----------------------|-----------------------|
A#|-----------------------|-----------------------|-----------------------|-----------------------|
F#|-----------------------|----------8--9--8------|-----------------------|----------8--9--8------|
C#|----------9-----------9|-------------------9--7|----------9-----------9|-------------------9--7|
G#|-7--7--7-----7--7--7---|-7--7--7---------------|-6--6--6-----6--6--6---|-6--6--6---------------|
D#|-----------------------|-----------------------|-----------------------|-----------------------|
   Hold on to alibis. Hide behind your disguise.

Guitar 1
D#|-----------------------|-----------------------|-----------------------|-----------------------|
A#|-----------------------|-----------------------|-----------------------|-----------------------|
F#|-----------------------|-----------------------|-----------------------|-----------------------|
C#|-----------------------|-----------------------|-----------------------|-----------------------|
G#|----------7-----------7|----------7-----------7|----------7-----------7|----------7-----------7|
D#|-4--4--4-----4--4--4---|-4--4--4-----4--4--4---|-5--5--5-----5--5--5---|-5--5--5-----5--5--5---|
   Say you're wrong, I will die. Never give up the fight.

Guitar 1
D#|-----------------------|-----------------------|-----------------------|-----------------------|
A#|-----------------------|-----------------------|-----------------------|-----------------------|
F#|-----------------------|----------8--9--8------|-----------------------|----------8--9--8------|
C#|----------9-----------9|-------------------9--7|----------9-----------9|-------------------9--7|
G#|-7--7--7-----7--7--7---|-7--7--7---------------|-6--6--6-----6--6--6---|-6--6--6---------------|
D#|-----------------------|-----------------------|-----------------------|-----------------------|
   This life you've painted red. Say I'm better off dead.

Guitar 1
   E5                      E5                      E5                      E5
          .           .           .           .           .           .           .           .
D#|-----------------------|-----------------------|-----------------------|-----------------------|
A#|-----------------------|-----------------------|-----------------------|-----------------------|
F#|-----------------------|-----------------------|-----------------------|-----------------------|
C#|-2--2--2-----2--2--2---|----2--2-----2--2--2---|-2--2--2-----2--2--2---|----2--2-----2--2--2---|
G#|-2--2--2-----2--2--2---|----2--2-----2--2--2---|-2--2--2-----2--2--2---|----2--2-----2--2--2---|
D#|-0--0--0-----0--0--0---|----0--0-----0--0--0---|-0--0--0-----0--0--0---|----0--0-----0--0--0---|
Guitar 2
   E/G#                    E/G#                    A5                      B5
D#|-----------------------|-----------------------|-----------------------|-----------------------|
A#|-----------------------|-----------------------|-----------------------|-----------------------|
F#|-----------------------|-----------------------|-----------------------|-----------------------|
C#|-6--6--6-----6--6--6---|----6--6-----6--6--6---|-7--7--7-----7--7--7---|----9--9-----9--9--9---|
G#|-7--7--7-----7--7--7---|----7--7-----7--7--7---|-7--7--7-----7--7--7---|----9--9-----9--9--9---|
D#|-4--4--4-----4--4--4---|----4--4-----4--4--4---|-5--5--5-----5--5--5---|----7--7-----7--7--7---|


[Chorus]
Guitar 1
   E5                      E5                      E5                      E5
                         .                                              .
D#|-----------------------|-----------------------|-----------------------|-----------------------|
A#|-----------------------|-----------------------|-----------------------|-----------------------|
F#|-----------------------|-----------------------|-----------------------|-----------------------|
C#|-----------------------|-----------------------|-----------------------|-----------------------|
G#|-2--2--2--2--2--2--2--2|----2--2--2--2--2--2--2|-2--2--2--2--2--2--2--2|----2--2--2--2--2--2--2|
D#|-0--0--0--0--0--0--0--0|----0--0--0--0--0--0--0|-0--0--0--0--0--0--0--0|----0--0--0--0--0--0--0|
   Always right you're never wrong. Telling me I don't belong.

Guitar 1
   E/G#                    E/G#                    A5                      B5
                         .                                .              .     .
D#|-----------------------|-----------------------|-----------------------|-----------------------|
A#|-----------------------|-----------------------|-----------------------|-----------------------|
F#|-----------------------|-----------------------|-----------------------|-----------------------|
C#|-6--6--6--6--6--6--6--6|----6--6--6--6--6--6--6|-7--7--7-----7--7--7--7|----9-----9--9--9--9--9|
G#|-7--7--7--7--7--7--7--7|----7--7--7--7--7--7--7|-7--7--7-----7--7--7--7|----9-----9--9--9--9--9|
D#|-4--4--4--4--4--4--4--4|----4--4--4--4--4--4--4|-5--5--5-----5--5--5--5|----7-----7--7--7--7--7|
  Just put the knife away and try to listen, to listen

Guitar 1
   E5                      E5                      E5                      E5
D#|-----------------------|-----------------------|-----------------------|-----------------------|
A#|-----------------------|-----------------------|-----------------------|-----------------------|
F#|-----------------------|-----------------------|-----------------------|-----------------------|
C#|-2--2--2--2--2--2--2--2|-2--2--2--2--2--2--2--2|-2--2--2--2--2--2--2--2|-2--2--2--2--2--2--2--2|
G#|-2--2--2--2--2--2--2--2|-2--2--2--2--2--2--2--2|-2--2--2--2--2--2--2--2|-2--2--2--2--2--2--2--2|
D#|-0--0--0--0--0--0--0--0|-0--0--0--0--0--0--0--0|-0--0--0--0--0--0--0--0|-0--0--0--0--0--0--0--0|
Guitar 2 
D#|-----------------------|-----------------------|-----------------------|-----------------------|
A#|---12----10-----9----10|---12----10-----9----10|---12----10-----9----10|---12----10-----9----10|
F#|-9-----9-----9-----9---|-9-----9-----9-----9---|-9-----9-----9-----9---|-9-----9-----9-----9---|
C#|-----------------------|-----------------------|-----------------------|-----------------------|
G#|-----------------------|-----------------------|-----------------------|-----------------------|
D#|-----------------------|-----------------------|-----------------------|-----------------------|
   You say you changed you stayed the same. Always driving me insane.

Guitar 1
   E/G#                    E/G#                    A5                      B5
D#|-----------------------|-----------------------|-----------------------|-----------------------|
A#|-----------------------|-----------------------|-----------------------|-----------------------|
F#|-----------------------|-----------------------|-----------------------|-----------------------|
C#|-6--6--6--6--6--6--6--6|-6--6--6--6--6--6--6--6|-7--7--7--7--7--7--7--7|-7--9--9---------------|
G#|-7--7--7--7--7--7--7--7|-7--7--7--7--7--7--7--7|-7--7--7--7--7--7--7--7|-7--7--9---------------|
D#|-4--4--4--4--4--4--4--4|-4--4--4--4--4--4--4--4|-5--5--5--5--5--5--5--5|-5--0--7---------------|
Guitar 2
D#|-----------------------|-----------------------|-----------------------|-----------------------|
A#|---12----10-----9----10|---12----10-----9----10|-9--9--9--9--9--9--9--9|10----12---------------|
F#|-9-----9-----9-----9---|-9-----9-----9-----9---|-9--9--9--9--9--9--9--9|-9--9-11---------------|
C#|-----------------------|-----------------------|-----------------------|----9------------------|
G#|-----------------------|-----------------------|-----------------------|-----------------------|
D#|-----------------------|-----------------------|-----------------------|-----------------------|
   Just put the knife away and try to listen, to listen

[Outro]
Guitar 1
   E5                      E5                      E5                      E5
D#|-----------------------|-----------------------|-----------------------|-----------------------|
A#|-----------------------|-----------------------|-----------------------|-----------------------|
F#|-9--9-----9--9--9-----9|-9--9-----9--9--9-----9|-9--9-----9--9--9-----9|-9--9-----9--9--9-----9|
C#|-9--9-----9--9--9-----9|-9--9-----9--9--9-----9|-9--9-----9--9--9-----9|-9--9-----9--9--9-----9|
G#|-7--7-----7--7--7-----7|-7--7-----7--7--7-----7|-7--7-----7--7--7-----7|-7--7-----7--7--7-----7|
D#|-----------------------|-----------------------|-----------------------|-----------------------|
Guitar Guitar 2
D#|-----------------------|-----------------------|-----------------------|-----------------------|
A#|12-12----12--9--9-----9|10-10----10--9--9-----9|12-12----12--9--9-----9|10-10----10--9--9-----9|
F#|-9--9-----9--9--9-----9|-9--9-----9--9--9-----9|-9--9-----9--9--9-----9|-9--9-----9--9--9-----9|
C#|-9--9-----9--9--9-----9|-9--9-----9--9--9-----9|-9--9-----9--9--9-----9|-9--9-----9--9--9-----9|
G#|-----------------------|-----------------------|-----------------------|-----------------------|
D#|-----------------------|-----------------------|-----------------------|-----------------------|

Guitar 1
   C#5                     C#5                     B5                      B5
D#|-----------------------|-----------------------|-----------------------|-----------------------|
A#|-----------------------|-----------------------|-----------------------|-----------------------|
F#|-6--6-----6--6--6-----6|-6--6-----6--6--6-----6|-----------------------|-----------------------|
C#|-6--6-----6--6--6-----6|-6--6-----6--6--6-----6|-9--9-----9--9--9-----9|-9--9-----9--9--9-----9|
G#|-4--4-----4--4--4-----4|-4--4-----4--4--4-----4|-9--9-----9--9--9-----9|-9--9-----9--9--9-----9|
D#|-----------------------|-----------------------|-7--7-----7--7--7-----7|-7--7-----7--7--7-----7|
Guitar 2
D#|-----------------------|-----------------------|-----------------------|-----------------------|
A#|12-12----12--9--9-----9|10-10----10--9--9-----9|12-12----12--9--9-----9|10-10----10--9--9-----9|
F#|-9--9-----9--9--9-----9|-9--9-----9--9--9-----9|-9--9-----9--9--9-----9|-9--9-----9--9--9-----9|
C#|-9--9-----9--9--9-----9|-9--9-----9--9--9-----9|-9--9-----9--9--9-----9|-9--9-----9--9--9-----9|
G#|-----------------------|-----------------------|-----------------------|-----------------------|
D#|-----------------------|-----------------------|-----------------------|-----------------------|

Guitar 1
D#|-----------------------|-----------------------|
A#|-----------------------|-----------------------|
F#|-----------------------|-----------------------|
C#|-2---------------------|-2-----2\--------------|
G#|-2---------------------|-2-----2\--------------|
D#|-0---------------------|-0-----0\--------------|
Guitar 2
D#|-----------------------|-----------------------|
A#|-----------------------|-----------------------|
F#|-----------------------|-9-----9\--------------|
C#|-2---------------------|-9-----9\--------------|
G#|-2---------------------|-7-----7\--------------|
D#|-0---------------------|-----------------------|



************************************

| x   Dead note
| /   Slide up
| \   Slide down
| PM  Palm mute
| .   Cut off/Staccato (above note)

************************************
Suggest correction
Creating personal tab
Creating personal tab
You can edit any tab online and save it as your Personal.

You can edit, replace or remove any tab part or add personal notes – all changes will be seen only by you.

Personal tabs can be accessed anytime from any device, even offline.
Learn more »
Give kudos to tab author, rate the tab!
1 2 3 4 5
comments
print report bad tab
guest
You may want to rate the tab now too:
select rating
Wanna post a correction for this tab? Suggest correction