Oops, an error
Loading. Please wait.

Spokesman bass

version 2
version 2

Whole song

Interactive

4,784 views 9 this week
1 commentread comment
1 2 3 4 5
x 7
add to favorites
×
Save as Personal and add changes to this tab that will be seen only by you. Learn more ›
×
You can save this tab as Personal to edit and correct it or add notes. All changes will be seen only by you. Learn more »
launch autoscroll
font size
0
reset
guitar tuner
edit
Autoscroll
slow
fast
+/-
esc
set tempo
stop
----------------------------------------------------------------------------
			  SPOKESMAN - Goldfinger
----------------------------------------------------------------------------

Tabbed By : alfonzthemonkey
e-mail: alfonzothemonkey@hotmail.co.uk

Tuning:standard

this is the tab for the full song because other tabs miss bits out, so here it is.

(> = play note 8 times)

intro:
G|----------|
D|----------|
A|2-2-2-2-2-|
E|-0-0-0-0--|

G|-------------------------------------------|
D|-------------------------------------------|
A|2222222222----------4444444444-77-44-222222|
E|----------2222222222-----------------------|

G|------------------------------------------------|
D|-------------------------------------------99999|
A|2222222222----------4444444444-77-44-222222-----|
E|----------2222222222----------------------------|

then...

fill:
G|---------------------|
D|-------11-12-14-12-11|
A|0~0~0~---------------|
E|---------------------|

chorus:
G|---------------------------------------------|
D|---------------------------------------------|
A|-----------55-44-22222-----------55555-------| x2
E|33333-55555-----------33333-55555-----5555555|

intro:
G|----------|
D|----------|
A|2-2-2-2-2-|
E|-0-0-0-0--|

verse:
G|------------------------------------------------|
D|-------------------------------------------99999|
A|2>2>----4>4>-77-44-2>-2>2>----4>4>-77-44-2>-----|
E|----2>2>------------------2>2>------------------|

fill:
G|---------------|
D|-------11-12-14|
A|0~0~0~---------|
E|---------------|

chorus:
G|---------------------------------------------|
D|---------------------------------------------|
A|-----------55-44-22222-----------55555-------| x2
E|33333-55555-----------33333-55555-----5555555|

break:
(listen for timing)
G|-----------------------------------------------------|
D|-----------------------------------------------------|
A|2-2-2-2-2-2-2-2-2-2-2---2-2-2-2-2-2-2-2-2-2-222222222|
E|-0-0-0-0-0-0-0-0-0-0-000-0-0-0-0-0-0---0-0-0---------|

chorus:
G|---------------------------------------------|
D|---------------------------------------------|
A|-----------55-44-22222-----------55555-------| x2
E|33333-55555-----------33333-55555-----5555555|

extended part:
G|--------------------------------------------|
D|--------------7-5---------------------------|
A|--2-5---4-7--5-4-22222-----------55555------|
E|33----55--------------33333-55555-----555555|

outro:
G|-----------------------|
D|-----------------------|
A|2-2-2-2-2---2-2-2-2-2-2|
E|-0-0-0-0-000-0-0-0-0-0-|

that's it, you'll have to listen to the song for the timing, as it can seem to get a bit 
please rate

| /  slide up
| \  slide down
| h  hammer-on
| p  pull-off
| ~  vibrato
| +  harmonic
| x  Mute note
============================================================================

            
            
Suggest correction
Creating personal tab
Creating personal tab
You can edit any tab online and save it as your Personal.

You can edit, replace or remove any tab part or add personal notes – all changes will be seen only by you.

Personal tabs can be accessed anytime from any device, even offline.
Learn more »
comments
print report bad tab
1 comment total.
0 reply
TriggeringMetal 10 Sep 05, 2008 09:15 AM

Dead on.

guest
You may want to rate the tab now too:
select rating
Wanna post a correction for this tab? Suggest correction