Oops, an error
Loading. Please wait.

Superman Bass Tab

version 2
version 2

Whole song

Interactive

2,045 views 1 this week
no commentswrite comment
1 2 3 4 5
please rate
add to favorites
launch autoscroll
font size
0
reset
guitar tuner
Tab Pro tools
  • play this tab
  • loop segment
  • change instrument
  • show fretboard
  • metronome
×
Best way to learn
"Superman"
Autoscroll
slow
fast
+/-
esc
set tempo
stop
Contributor

Tablatura de NICO M. (nicokbbl@hotmail.com)

Artista: Goldfinger
Cancion: Superman
Album: Hung-Ups (1997) 



1|-------------------------------------------------------------|
2|-0-0-0-0-0-0------------2-2-2-2-2-2-----------2-2-2-2-2-2-2--|\
3|------------0-0-0-0-0-0------------2-2-2-2-2-2---------------| \
4|-------------------------------------------------------------|  \
                                                                  ||--- > x2 
1|-------------------------------------------------------------|  /
2|--4-4-4-4-4-4-5-5-5-5-5-5-7-7-7-7-7-7------------------------| /
3|-------------------------------------------------------------|/
4|-------------------------------------------------------------|


   So here I am
   doing everything I can
   holding on to what I am
   pretending I'm a superman



1|-------------------------------------------------------|
2|---4-5-4-------------0-2-0-4--------------------4-5-4--|
3|-5----------4-5-7--2---------4-2-0----2-3-2---5--------|
4|----------5-------------------------3------------------|


   I'm trying to keep
   the ground on my feet
   it seems the world's
   falling down around me


1|-------------------------------------------------------|
2|-------------------------------------------------------|
3|----4-5-4-7-5-4----------------------------------------|
4|--5-------------5--------------------------------------|

   The nights are all long

1|-------------------------------------------------------|
2|---4-5-4-7-5-4-2---0-2-0-4------------------7-5-4------|
3|-5---------------2---------0-2-4---2-3-2--5------------|
4|---------------------------------3---------------------|


   I'm singing this song
   to try and make the answers
   more than maybe


1|-------------------------------------------------------|
2|-------------------------------------------------------|
3|----4-5-4-7-5-4----------------------------------------|
4|--5-------------5--------------------------------------|

   more than maybe


Coro
1|-----------------------0>-2>---------------------------|
2|-----------------------------0-0-----------------------|x2
3|----5-0-/-12>-----4-2>-----------0>--------------------|
4|--3------------2---------------------------------------|


   And I'm so confused
   about what to do
   sometimes I want
   to throw it all away



1|-------------------------------------------------------------|
2|-0-0-0-0-0-0------------2-2-2-2-2-2-----------2-2-2-2-2-2-2--|\
3|------------0-0-0-0-0-0------------2-2-2-2-2-2---------------| \
4|-------------------------------------------------------------|  \
                                                                  ||--- > x2 
1|-------------------------------------------------------------|  /
2|--4-4-4-4-4-4-5-5-5-5-5-5-7-7-7-7-7-7------------------------| /
3|-------------------------------------------------------------|/
4|-------------------------------------------------------------|


   So here I am
   growing older all the time
   looking older all the time
   feeling younger in my mind

   And here I am 
   doing everything I can
   holding on to what I am
   pretending I'm a superman


1|-------------------------------------------------------------|
2|-0-0-0-0-0-0------------2-2-2-2-2-2-----------2-2-2-2-2-2-2--|
3|------------0-0-0-0-0-0------------2-2-2-2-2-2---------------|
4|-------------------------------------------------------------|  
                                                                  
1|-------------------------------------------------------------|  
2|--4-4-4-4-4-4-5-5-5-5-5-5-7-7-7-7-7-7------------------------| 
3|-------------------------------------------------------------|
4|-------------------------------------------------------------|


1|-------------9-7-6-------------------------------------|
2|----4-5-4--7---------0-2-0--4-------------------4-5-4--|
3|--5----------------2----------0-2-4----2-3-2--5--------|
4|-------------------------------------3-----------------|


   I'm trying to sleep
   I lost count of the sheep
   my mind is racing faster
   every minute


1|-------------------------------------------------------|
2|-------------------------------------------------------|
3|----4-5-4-7-5-4----------------------------------------|
4|--5-------------5--------------------------------------|


   What could I do more


1|-------------------------------------------------------|
2|----4-5-4-7-5-4-2---0-2-0-4-2-0--------------4-5-4-----|
3|--5---------------2-------------4----2-3-2-5-----------|
4|-----------------------------------3-------------------|


   yeah I'm really not sure
   I know I'm running circles


1|-------------------------------------------------------|
2|-------------------------------------------------------|
3|----4-5-4-7-5-4----------------------------------------|
4|--5-------------5--------------------------------------|


   but I can't quit


Coro
1|-----------------------0>-2>---------------------------|
2|-----------------------------0-0-----------------------|x2
3|----5-0-/-12>-----4-2>-----------0>--------------------|
4|--3------------2---------------------------------------|


   And I'm so confused
   about what to do
   sometimes I want
   to throw it all away


1|-------------------------------------------------------|
2|-------------------------------------------------------|
3|-------------------------------------------------------|
4|--3>-5>------------------------------------------------|


   Controlling everything in site


1|-------------------------------------------------------|
2|-------------------------------------------------------|
3|-------------------------------------------------------|
4|---5-5-7-7-8-8-7-5--7-7-9-9-10-10-9-10-----------------|


   I'm feeling weak
   I don't feel right


1|-------------------------------------------------------|
2|-------------------------------------------------------|
3|-------------------------------------------------------|
4|--12-12-14-14-15-15-14-12--5-5-8-8-7-7-8-10------------|


   you're telling me
   I have to change


1|-------------------------------------------------------|
2|-----------------------------7---7-0>------------------|
3|-------------------------------------------5>-6>-8>----|
4|--12-12-14-14-15-15-14-12--5---5-----0>-5>-------------|


   telling me to act my age
   but if all that I can do


1|-------------------------------------------------------|
2|-------------------------------------------------------|
3|-------------------------------------------------------|
4|--3>-5>------------------------------------------------|


   is just sit and watch time go


1|-------------------------------------------------------|
2|-------------------------------------------------------|
3|-------------------------------------------------------|
4|---5-5-7-7-8-8-7-5--7-7-9-9-10-10-9-10-----------------|


   then I'll have to say good-bye


1|-------------------------------------------------------|
2|-------------------------------------------------------|
3|-------------------------------------------------------|
4|--12-12-14-14-15-15-14-12--5-5-8-8-7-7-8-10------------|


   life's too short to watch it fly
   to watch it fly


1|-------------------------------------------------------------|
2|-0-0-0-0-0-0------------2-2-2-2-2-2-----------2-2-2-2-2-2-2--|\
3|------------0-0-0-0-0-0------------2-2-2-2-2-2---------------| \
4|-------------------------------------------------------------|  \
                                                                  ||--- > x2 
1|-------------------------------------------------------------|  /
2|--4-4-4-4-4-4-5-5-5-5-5-5-7-7-7-7-7-7------------------------| /
3|-------------------------------------------------------------|/
4|-------------------------------------------------------------|

   So here I am
   growing older all the time
   looking older all the time
   feeling younger in my mind
 
   So here I am
   doing everything I can
   holding on to what I am
   pretending I'm a superman



1|---------------------------------------------------------------|
2|---------------------------------------------------------------|x2
3|---------------------------------------------------------------|
4|--12-12-12-12-14-14-14-14-15-15-15-15-14-14-14-14--------------|


1|---------------------------------------------------------------|
2|---------------------------------------------------------------|x2
3|---------------------------------------------------------------|
4|--8-8-8-8-10-10-10-10-11-11-11-11-10-10-10-10------------------|
comments
We did not receive enough feedback on this tab! Please rate:
print report bad tab
1 2 3 4 5
I want to post or [tab]
guest
You may want to rate the tab now too:
select rating
Please do not post tabs as comments. Select "correction" instead!