Oops, an error
Loading. Please wait.

Superman Tab

version 3
version 3

Whole song

Interactive

3,060 views 1 this week
1 commentread comment
1 2 3 4 5
accurate
x 3
add to favorites
launch autoscroll
font size
0
reset
how to read this tab
guitar tuner
Tab Pro tools
  • play this tab
  • loop segment
  • change instrument
  • show fretboard
  • metronome
×
Best way to learn
"Superman"
Autoscroll
slow
fast
+/-
esc
set tempo
stop
Contributor
Difficulty
novice
this is a great song and i hope you enjoy it. its a hard song to        figure out i 
but i tried my best and i think it's pretty        good.  if you have any questions or 
please email me at
boarderx8@msn.com thanks.

intro:
these are just the chords you play, i'm sure you can figure
out the strumming by yourself from the song.

e--10--5--12--6/7-6/7--12--14--15--17--|
B--10--5--12--6/7-6/7--12--14--15--17--|
G--11--6--12--6/7-6/7--12--14--16--18--| x3
D--------------------------------------|
A--------------------------------------|
E--------------------------------------|


verse:

these are just the chords you play, i'm sure you can listen
to the song and figure out the strumming yourself.


e--10--5----------------5--|
B--10--5--12--7--8--10--5--|
G--11--6--12--7--9--11--6--|
D--------------------------| x2
A--------------------------|
E--------------------------|


this is the part where it goes " and i'm so confused, about
what to do..."


e------------------------------|
B------------------------------|
G-----7------------------------|
D--5--7--7---7--9--12---5---7--|
A--5--5--7---7--9--12---5---7--|
E--3-----5---5--7--10---3---5--|

|~~~~~~~~~~~~~~~~~~~~~~~~~~~~|
|  then voice and bass solo  |
|~~~~~~~~~~~~~~~~~~~~~~~~~~~~|


then verse again:

e--10--5--12--6/7-6/7--12--14--15--17--|
B--10--5--12--6/7-6/7--12--14--15--17--|
G--11--6--12--6/7-6/7--12--14--16--18--| x2
D--------------------------------------|
A--------------------------------------|
E--------------------------------------|


|~~~~~~~~~~~~~~~~~~~~~~~~~~~~|
|  then voice and bass solo  |
|~~~~~~~~~~~~~~~~~~~~~~~~~~~~|


then do this:
these are just the chords you play, in the song they strum it
like up and down and fairly fast, listen to the song and i'm
sure you'll get it.

e------------------------------|
B--10--10--12--10--12--10--10--|
G--11--9---12--11--12--11--9---|
D------------------------------|
A------------------------------|
E------------------------------|


then back to this part:


e------------------------------|
B------------------------------|
G-----7------------------------|
D--5--7--7---7--9--12---5---7--|
A--5--5--7---7--9--12---5---7--|
E--3-----5---5--7--10---3---5--|


then it does this thing:
these are just the chords, you can figure out the strumming i'm sure.

e--------------------------------------------------------------------------|
B--10--12--12--10--12--12---12--13--10--12--13--10--12--13-12-10-13-12-10--|
G--11--12--13--11--13--12---12--14--11--12--14--11--12--14-12-11-14-12-11--|
D--------------------------------------------------------------------------|
A--------------------------------------------------------------------------|
E--------------------------------------------------------------------------|

continued of above:

e--------------|
B--15--13--12--|
G--16--14--12--|
D--------------|
A--------------|
E--------------|


verse one more time:


e--10--5--12--6/7-6/7--12--14--15--17--|
B--10--5--12--6/7-6/7--12--14--15--17--|
G--11--6--12--6/7-6/7--12--14--16--18--| x2
D--------------------------------------|
A--------------------------------------|
E--------------------------------------|


then here's the solo:


e------------------------------------------------5/7-5---5------|
B----------7-10----------------------------------------7---5-5--|
G------7-9------9-7------7-9-7-7-6-6-----4-7-4-7----------------|
D--5/7---------------7/9-------------4/5------------------------|
A---------------------------------------------------------------|
E---------------------------------------------------------------|

solo still:

e-------------------------------------------------5/7-5---5---------|
B------------10-----------------------------------------7---5-5-----|
G------7-9-7----9-7-----7-9-7-11-6--------4-7-4-7----------------6-7|
D--5/7--------------7/9------------7--4/5---------------------------|
A-------------------------------------------------------------------|
E-------------------------------------------------------------------|


and that's the end of superman by goldfinger. its a great song and not that hard to play 
i hope that u found my tab to be accurate, enjoyable, and useful and please rate me.
comments
We did not receive enough feedback on this tab! Please rate:
print report bad tab
1 2 3 4 5
1 comment total.
0 reply
sassamafras wrote on August 24 2007, 01:00 pm

man, the intro is all wrong, look at the other tab for it for a more accurate intro. the solo's not bad thou

I want to post or [tab]
guest
You may want to rate the tab now too:
select rating
Please do not post tabs as comments. Select "correction" instead!