Oops, an error
Loading. Please wait.

Tell Me Tab

version 1
version 1

Whole song

Interactive

3,144 views 1 this week
4 commentsread comments
1 2 3 4 5
accurate
x 3
add to favorites
launch autoscroll
font size
0
reset
how to read this tab
guitar tuner
Tab Pro tools
  • play this tab
  • loop segment
  • change instrument
  • show fretboard
  • metronome
×
Best way to learn
"Tell Me"
Autoscroll
slow
fast
+/-
esc
set tempo
stop
Contributor
Song: Tell Me
Artist: Goldfinger
Album: Open Your Eyes
Tabbed By: Chris Johnert
Email: stratmancj@hotmail.com


Intro:

 |             G    A   D |
E|------------------------|
B|------------------------|
G|----------------------7-|  4x
D|-------------5-5--7-7-7-|
A|-5--4--2--0--5-5--7-7-5-|
E|-------------3-3--5-5---|


Verse:

 | D       C#      B       | G       A      |
E|-------------------------|----------------|
B|-------------------------|----------------|
G|-7-------6-------4-------|----------------|  2x
D|-7-(4x)--7-(4x)--4-(8x)--|-5-------7------|
A|-5-------4-------2-------|-5-(8x)--7-(8x)-|
E|-------------------------|-3-------5------|

 | G       Bm      G       A |
E|---------------------------|
B|---------------------------|
G|---------4-----------------|
D|-5-------4-(8x)--5-------7-|
A|-5-(8x)--2-------5-(8x)--7-|
E|-3---------------3-------5-|


Chorus 1:

Guitar 1
 |                            |
E|----------------------------|
B|----------------------------|
G|----------------------------|
D|----------------------------|  4x
A|-5--4--2--0--------0--0---5-|
E|-------------3--3-----------|

Guitar 2
E|------------------------------------|
B|-8-5-7-7--8-10-7-7--8-10-7-7--8-10--|
G|-7-6-7-7--7-11-7-7--7--9-7-7--7-11--|
D|------------------------------------|
A|------------------------------------|
E|------------------------------------|


Chorus 2:

 |                G       A       D      |
E|---------------------------------------|
B|---------------------------------------|
G|--------------------------------7------|  4x
D|----------------5-------7-------7-(4x)-|
A|-0--5--4--2--0--5-(4x)--7-(4x)--5------|
E|----------------3-------5--------------|


Bridge:

 | B       E      | B       D       A      |
E|----------------|------------------------|
B|----------------|------------------------|
G|-4--------------|-4-------7--------------|
D|-4-(8x)--2------|-4-(8x)--7-(4x)--7------|
A|-2-------2-(8x)-|-2-------5-------7-(4x)-|
E|---------0------|-----------------5------|

 | B       E      | B       A |
E|----------------|-----------|
B|----------------|-----------|
G|-4--------------|-4---------|
D|-4-(8x)--2------|-4-(8x)--7-|
A|-2-------2-(8x)-|-2-------7-|
E|---------0------|---------5-|

Intro
Verse
Chorus 1
Verse
Chorus 2
Bridge
Chorus 1

2015.03.30 - Updates have been made ... thanks for the help redsoxxplayer and risingphoenix-J
comments
We did not receive enough feedback on this tab! Please rate:
print report bad tab
1 2 3 4 5
4 comments total. Showing first comments.
0 reply
risingphoenix-J wrote on April 20 2003, 12:00 am

Hey the tab is good but are a few corrections needed the main one is that in the intro on the first and third time you play it the last chord isn't D5 it is F#5:
E|-
B|-
G|-
D|4
A|4
E|2
great work neway dude peace out.

0 reply
redsoxxplayer wrote on November 19 2006, 05:35 pm

The ska parts during the chorus are
------------------------------------
-8-5-7-7--8-10-7-7--8-10-7-7--8-10--
-7-6-7-7--7-11-7-7--7--9-7-7--7-11--
------------------------------------
------------------------------------
------------------------------------

0 reply
stratmancj wrote on March 30 2015, 07:53 pm

Updates have been made ... thanks for the help redsoxxplayer and risingphoenix-J

I want to post or [tab]
guest
You may want to rate the tab now too:
select rating
Please do not post tabs as comments. Select "correction" instead!