Oops, an error
Loading. Please wait.

Tell Me Tab

version 3
version 3

Whole song

Interactive

672 views 1 this week
no commentswrite comment
1 2 3 4 5
please rate
add to favorites
launch autoscroll
font size
0
reset
how to read this tab
guitar tuner
Autoscroll
slow
fast
+/-
esc
set tempo
stop
Help us to improve Ultimate-Guitar.com Take our survey!
×
Author
**rhythm isn't shown in general for chords, unless specified**

INTRO (clean, rhythm not shown for chords, each section twice)

E|---------3-3-2-|---------3-2-2-|
B|---------3-3-3-|---------3-3-3-|
G|---------0-0-2-|---------0-0-2-|
D|---------0-2-0-|-4-2-0---0-2-0-|
A|-5-4-2-0-2-0---|-------4-2-0---|
E|---------3-----|---------3-----|

First two VERSES (distortion, muted+distortion second time)
              second part played w/ second verse
E|-----------|---5-------2---3---5-|
B|-----------|-3---3\2---------2---|
G|-7-6-4-----|---------4---4-------|
D|-7-6-4-5-7-|---------------------|
A|-5-4-2-5-7-|---------------------|
E|-5-4-2-3-5-|---------------------|

BRIDGE (distortion)

E|---------|
B|---------|
G|---------|
D|-5-2-5-7-|
A|-5-2-5-7-|
E|-3-0-3-5-|

CHORUS (clean, mute single notes, rhythm is shown)
     first chorus ends with first note of verse for a few strums
E|-------------3-----5-------|
B|-------------3-----5-----7-|
G|-------------------------7-|
D|---------------------------|
A|---5-4-2-0-------------5---|
E|-5---------3---3-5---5-----|

DISTORTED CHORUS (distortion, each section twice)

E|---------3-5-5-|---------3-5-5-|
B|---------3-5-7-|---------3-5-7-|
G|---------4-6-7-|---------4-6-7-|
D|---------5-7-7-|-4-2-0---5-7-7-|
A|-5-4-2-0-5-7-5-|-------4-5-7-5-|
E|---------3-5---|---------3-5---|

INTERLUDE (distortion - again no rhythm but many strums per chord)
                  strum last chord once three times at end of interlude
E|------------------3-|
B|------------------0-|
G|-4---4-5----4---4-2-|
D|-4-2-4-5-5--4-2-4-2-|
A|-2-2-2-3-5--2-2-2-0-|
E|-2-0-2-3-3--2-0-2---|

Last chorus ADDITION (clean, muted)

E|-----------------------------------------------------------5-|
B|-----------------------------------------------------------7-|
G|-----------------------------------------------------------7-|
D|-------------------------------7-5-4-2-0-------------------7-|
A|---5-4-2-0-----2-------4---5-5-----------4-----2-------4---5-|
E|-5---------3-3---3-5-5---5-----------------3-3---3-5-5---5---|

SONG ORDER: Intro, Verse, Bridge, Chorus, Verse, Bridge, Distorted Chorus, Interlude, 
Chorus (with last chorus addition at end)
Suggest correction
What's this?
You can suggest a correction to this tab. Community and Mods will review your correction and vote to approve or reject it.
comments
We did not receive enough feedback on this tab! Please rate:
print report bad tab
1 2 3 4 5
guest
You may want to rate the tab now too:
select rating
Please do not post tabs as comments. Select "correction" instead!