Oops, an error
Loading. Please wait.

The Innocent Chords

version 1
version 1

Whole song

Interactive

1,668 views 3 this week
7 commentsread comments
1 2 3 4 5
x 3
add to favorites
launch autoscroll
font size
0
reset
transpose
0
reset
display chords
guitar tuner
Autoscroll
slow
fast
+/-
esc
set tempo
stop
Help us to improve Ultimate-Guitar.com Take our survey!
×
--------------------------------------------------------------------------------
		The Innocent - Goldfinger, Good Charlotte, Mest
--------------------------------------------------------------------------------

Tabbed By: Kevin Buzby
E-Mail: kjlee@bu.edu

Tuning: EADGBE

Song Notes:
Listen for palm mutes and pick scrapes.  They are quite evident.  If you don't
know how to do a pick scrape correctly you just take your pick and go from the
bridge (tail piece) and scrape your pick, holding it perpendicular to the
strings, to the headstock.  Timing is also easy so you should pick right up on
it. Just listen. Easy enough. :)
 
Chord Key:
    D      A      G      F#     B
E|---------------------------------|
B|---------------------------------|
G|--7------------------------------|
D|--7------7------5------4------9--|
A|--5------7------5------4------9--|
E|---------5------3------2------7--|

Intro: (Drums + Piano)

Verse 1:
D                A              B        A   G
The start of Armageddon, It was just another day
D                A              G (pick scrape)    A
We all saw the news nothing to say
D                   A            B         A    G
So many friends are missing, and family members gone
D                 A                 G
So we all pray to God "help them be strong"
D                  A       B           A    G 
And now we stand together, remembering that day
D                      A            G
The lives we live will never be the same

Chorus 1:
D                      A
And we don't know why
B                F#
The innocent die
G                    A             B
Will this world ever find a way to change?
D                      A
And we don't know why
B                          F#
But we know its not right
G                 A           B
Don't know why so many had to die
G                    A           D (pick scrape)
We don't know why so many had to die

Verse 2:
D                 A                B           A     G
Hate is turned to others for their religion or their skin
D                       A          G
But hate can't stop the problem it began
D           A      B          A G
Everyone is angry, people are afraid
D                     A                 G
And no one knows what decisions will be made

Chorus 2:
D                  A
We don't know why
B                 F#
The innocent die
G                    A             B
Will this world ever find a way to change?
D                     A
And we don't know why
B                          F#
But we know it's not right
G                    A           B
We don't know why so many had to die
G                 A           D (pick scrape)
Don't know why so many had to die

(solo)
  play over verse chords x2                 
E|-------------------------------------------------------------------|
B|-------------------------------------------------------------------|
G|-------------------------------------------------------------------|
D|--------------------------------------------------4----6----7----9-|
A|--5--5-5-5\7-5-4~-4/2-2-2-2-0-2~-4-5-0---4-4-5-22-2-44-4-55-5-77-7-|
E|---------------------------------------2---------------------------|
						 xx   xx   xx   xx	

E|-------------------------------------------------------------------------|
B|-------------------------------------------------------------------------|
G|-------------------------------------------------------------------------|
D|--0-0-4p0-5p0-4p0-0-0-4p0-5p0-4p0-0-0-4p0-5p0-7p0-9p0-7p0-5p0-4p0-0-0-4p0|
A|-------------------------------------------------------------------------|
E|-------------------------------------------------------------------------|

                            Harm.
E|-------------------------|------------------------------------|
B|-------------------------|<7~>--------------------<7>---------|
G|-------------------------|-------<7~>-----------------<7~~~~>-|
D|-5p0-4p0-0-0-4p0-5p0-4p0-|--------------<7~>------------------|
A|-------------------------|------------------------------------|
E|-------------------------|------------------------------------|

Chorus 3:
D                  A
We don't know why (don't know why)
B                  F#
The innocent die (don't know why)
G                    A             B
Will this world ever find a way to change
D                       A
And we don't know why (don't know why)
B                          F#
But we know its not right (don't know why)
G              A           B
Will any of us ever be the same
G                A           D
Will any of this ever be the same

Outro: (Piano + Drums)
I hear the guitar strumming barred forms of D, A, Bm, G in the background


| /  slide up
| \  slide down
| H  hammer-on
| p  pull-off
| ~  vibrato
| <> harmonic
| x  palm mute note

===============================================================================
Suggest correction
Give kudos to tab author, rate the tab!
1 2 3 4 5
comments
print report bad tab
7 comments total. Showing first comments.
0 reply
Abhor0 10 Apr 21, 2004 12:00 AM

r u sure about the B? its sounds odd to me, but i may just be out of tune.

0 reply
Abhor0 10 Apr 21, 2004 12:00 AM

oh, nevermind. i think i was playing it too long, it sounds ok now.

0 reply
Abhor0 10 Apr 21, 2004 12:00 AM

hmm... i change my mind again... maybe its me....

guest
You may want to rate the tab now too:
select rating
Wanna post a correction for this tab? Suggest correction