Oops, an error
Loading. Please wait.

The Innocent Tab

version 3
version 3

Whole song

Interactive

968 views 1 this week
no commentswrite comment
1 2 3 4 5
excellent!
x 3
add to favorites
launch autoscroll
font size
0
reset
how to read this tab
guitar tuner
Tab Pro tools
  • play this tab
  • loop segment
  • change instrument
  • show fretboard
  • metronome
×
Best way to learn
"The Innocent"
Autoscroll
slow
fast
+/-
esc
set tempo
stop
-------------------------------------------------------------------------------
             The Innocent - Goldfinger, Good Charlotte, Mest
-------------------------------------------------------------------------------

Tabbed by:Sean 
Email:good_starting@hotmail.com

Tuning:normal

^:strum up
v:strum down
*:palm mute
p:pull off
#:harmonic

Intro: i think its on piano but here it is anyway

e|--10-9-------10-9-------10--10--10-----------------------------------------|
B|-------10---------10--------x---10--10-------------------------------------|
G|----------11---------11-----12------11-------------------------------------|
D|------------------------------------12-------------------------------------|
A|---------------------------------------------------------------------------|
E|---------------------------------------------------------------------------|

Verse:
   [-----------------P.M---------------------------]
e|-vvvvvvvvvvvvvvvvvvvvvvvvvvvvvvvvvvvvvvvvvvvvvvvv--------------------------|
B|---------------------------------------------------------------------------|
G|-77777777------------------------77777777----------------------------------|
D|-777777777777777799999999555555557777777777777777--------------------------|
A|-555555557777777799999999555555555555555577777777--Pick Slide for 8 beats--|
E|---------555555557777777733333333--------55555555--------------------------|

Heres the strum pattern so i dont get complaints

e|---------------------------------------------------------------------------|
B|-vv^^v^------------------vv^^v^--------------------------------------------|
G|-777777vv^^v^vv^^v^vv^^v^777777vv^^v^-v^v-v^V-V^v-V^v----------------------|x2
D|-777777777777999999555555777777777777-555-555-555-555----------------------|
A|-555555777777999999555555555555777777-555-555-555-555----------------------|
E|-------555555777777333333------555555-333-333-333-333----------------------|

Chorus:

e|---------------------------------------------------------------------------|
B|-vvv^----------------------------------------------------------------------|
G|-7777vvvv^vvv^vvvv^vvv^vvv^vvv^v^v^----------------------------------------|x2
D|-7777777779999444445555777799999999----------------------------------------|*note that the last
A|-5555777779999444445555777799999999----------------------------------------| v^ of each set is
E|-----555557777222223333555577777777----------------------------------------| very quick

e|---------------------------------------------------------------------------|
B|----------v----------------------------------------------------------------|
G|--vv^-vv^-7----------------------------------------------------------------|
D|--555-777-7----------------------------------------------------------------|
A|--555-777-5----------------------------------------------------------------|
E|--333-555------------------------------------------------------------------|

Verse 2:
(above is the notes that guitar 2 plays and when [all on the G string])

     7   7   9   9   7   7   7   7   7   7   9   9  7   7   7   7   
e|---------------------------------------------------------------------------|
B|-**v-**v-------------------------**v-**v-----------------------------------|
G|-777-777-**v-**v-**v-**v-**v-**v-777-777-**v-**v-v^v-v^v-v^v-v^v-----------|
D|-777-777-777-777-999-999-555-555-777-777-777-777-555-555-555-555-----------|
A|-555-555-777-777-999-999-555-555-555-555-777-777-555-555-555-555-----------|
E|---------555-555-777-777-333-333---------555-555-333-333-333-333-----------|

e|---------------------------------------------------------------------------|
B|-vv^^v^------------------vv^^v^--------------------------------------------|
G|-777777vv^^v^vv^^v^vv^^v^777777vv^^v^-v^v-v^V-V^v-V^v----------------------|
D|-777777777777999999555555777777777777-555-555-555-555----------------------|
A|-555555777777999999555555555555777777-555-555-555-555----------------------|
E|-------555555777777333333------555555-333-333-333-333----------------------|

Chorus:

e|---------------------------------------------------------------------------|
B|-vvv^----------------------------------------------------------------------|
G|-7777vvvv^vvv^vvvv^vvv^vvv^vvv^v^v^----------------------------------------|x2
D|-7777777779999444445555777799999999----------------------------------------|*note that the last
A|-5555777779999444445555777799999999----------------------------------------| v^ of each set is
E|-----555557777222223333555577777777----------------------------------------| very quick

e|---------------------------------------------------------------------------|
B|----------v----------------------------------------------------------------|
G|--vv^-vv^-7----------------------------------------------------------------|
D|--555-777-7----------------------------------------------------------------|
A|--555-777-5----------------------------------------------------------------|
E|--333-555------------------------------------------------------------------|

Solo: its kick ass! you can do it two ways, both are fine, first:

e|---------------------------------------------------------------------------|
B|-v-^-v-^-v-^-v-^-v-^------v-^-v-^---^-v-^----**v-**v-**v-**v---------------|
G|-7-7-7-9-7-6-6-4-4-4-v-^--6-7-7-7-V-6-6-6-v--444-666-777-999---------------|
D|-x-x-x-x-x-x-x-x-x-x-7-5--x-x-x-x-7-x-x-x-7--xxx-xxx-xxx-xxx---------------|
A|-5-5-5-7-5-4-4-2-2-2-x-x--4-5-5-5-x-4-4-4-x--222-444-555-777---------------|
E|---------------------5-3----------5-------5--------------------------------|

Or if you cant play octave chords or are lazy or whatever this sounds ok

e|---------------------------------------------------------------------------|
B|---------------------------------------------**v-**v-**v-**v---------------|
G|---------------------------------------------444-666-777-999---------------|
D|---------------------------------------------xxx-xxx-xxx-xxx---------------|
A|-5-5-5-7-5-4-4-2-2-2------4-5-5-5---4-4-4----222-444-555-777---------------|
E|---------------------5-3----------5-------5--------------------------------|

the Second part of the solo is:

e|---------------------------------------------------------------------------|
B|---------------------------------------------------------------------------|
G|---------------------------------------------------------------------------|
D|-0-0-4p0-5p0-4p0-2p0-4p0-5p0-4p0-0-0-4p0-5p0-7p0-9p0-7p0-5p0-4p0-----------|
A|---------------------------------------------------------------------------|
E|---------------------------------------------------------------------------|

e|---------------------------------------------------------------------------|
B|-----------------------------------7#-----7#-------------------------------|
G|-------------------------------------7#-----7#-----------------------------|
D|-0-0-4p0-5p0-4p0-2p0-4p0-5p0-4p0-------7#----------------------------------|
A|---------------------------------------------------------------------------|
E|---------------------------------------------------------------------------|

final Chorus:

e|---------------------------------------------------------------------------|
B|-v-------------------------------------------------------------------------|
G|-7-v-v-v-v-v--vvv^vvv^vvv^v^v^---------------------------------------------|
D|-7-7-7-9-4-4--5555777799999999---------------------------------------------|
A|-5-7-7-9-4-4--5555777799999999---------------------------------------------|
E|---5-5-7-2-2--3333555577777777---------------------------------------------|

e|---------------------------------------------------------------------------|
B|-vvv^----------------------------------------------------------------------|
G|-7777vvvv^vvv^vvvv^vvv^vvv^vvv^v^v^----------------------------------------|
D|-7777777779999444445555777799999999----------------------------------------|
A|-5555777779999444445555777799999999----------------------------------------| 
E|-----555557777222223333555577777777----------------------------------------| 

e|---------------------------------------------------------------------------|
B|------------------v----Between each chord lossen your fingers to-----------|
G|--v-v-v-v-v-v-v-v-7----cut it short instead of letting it ring-------------|
D|--5-5-5-5-7-7-7-7-7--------------------------------------------------------|
A|--5-5-5-5-7-7-7-7-5--------------------------------------------------------|
E|--3-3-3-3-5-5-5-5----------------------------------------------------------|

Outro:also sounds like piano but this is it

e|--10-9-------10-9-------10--10--10-------10-9--10--------------------------|
B|-------10---------10--------x---10--10---------10--------------------------|
G|----------11---------11-----12------11-------------------------------------|
D|------------------------------------12-------------------------------------|
A|---------------------------------------------------------------------------|
E|---------------------------------------------------------------------------|

and if you can swing it with your band just play the chorus over
that softly with an acoustic.
comments
We did not receive enough feedback on this tab! Please rate:
print report bad tab
1 2 3 4 5
I want to post or [tab]
guest
You may want to rate the tab now too:
select rating
Please do not post tabs as comments. Select "correction" instead!