Oops, an error
Loading. Please wait.

The Only One Tab

650 views 3 this week
no commentswrite comment
1 2 3 4 5
3 more votes to show rating
add to favorites
launch autoscroll
font size
0
reset
how to read this tab
guitar tuner
Autoscroll
slow
fast
+/-
esc
set tempo
stop
Help us to improve Ultimate-Guitar.com Take our survey!
×
-------------------------------------------------------------------------------
                             The Only One - Goldfinger
-------------------------------------------------------------------------------
Tabbed by: JOe
Email:xrunawayboyx@hotmail.com

Tuning: standard (EADGBe)
Very simple ska song in the style of old school Goldfinger
Good stuffs

Intro (low, three notes, distortion, let ring)
e|-2-----------|
B|--2----------|
G|----3--------|
D|-------------|
A|-------------|
E|-------------|


Chorus - theres two guitars going on here, one clean and one distorted, it's really low
Distorted -
e|-x-2-x-2-x-2-x-2-x-2-x-2-x-2-x-2-x-2-x-2-x-2-x-2-x-2-x-2-x-2-x-2----|
B|-x-2-x-2-x-2-x-2-x-2-x-2-x-2-x-2-x-4-x-4-x-4-x-4-x-4-x-4-x-4-x-4----|
G|-x-3-x-3-x-3-x-3-x-3-x-3-x-3-x-3-x-4-x-4-x-4-x-4-x-4-x-4-x-4-x-4----|
D|--------------------------------------------------------------------|
A|--------------------------------------------------------------------|
E|--------------------------------------------------------------------|

Clean -
e|-x-6-x-6-x-6-x-6-x-6-x-6-x-6-x-6-x-7-x-7-x-7-x-7-x-7-x-7-x-7-x-7-----------|
B|-x-7-x-7-x-7-x-7-x-7-x-7-x-7-x-7-x-7-x-7-x-7-x-7-x-7-x-7-x-7-x-7-----------|
G|-x-8-x-8-x-8-x-8-x-8-x-8-x-8-x-8-x-8-x-8-x-8-x-8-x-8-x-8-x-8-x-8-----------|
D|---------------------------------------------------------------------------|
A|---------------------------------------------------------------------------|
E|---------------------------------------------------------------------------|

Verse/bridge - (Those are 10s, obviously)
e|-x-6-x-6-x-6-x-6-x-6-x-6-x-6-x-6-x-6-x-6-x-6-x-6-x-6-x-6-x-6-x-6-----------|
B|-x-7-x-7-x-7-x-7-x-7-x-7-x-7-x-7-x-6-x-6-x-6-x-6-x-6-x-6-x-6-x-6-----------|
G|-x-8-x-8-x-8-x-8-x-8-x-8-x-8-x-8-x-7-x-7-x-7-x-7-x-7-x-7-x-7-x-7-----------|
D|---------------------------------------------------------------------------|
A|---------------------------------------------------------------------------|
E|---------------------------------------------------------------------------|

e|-x-7-x-7-x-7-x-7-x-7-x-7-x-7-x-7-/-x-9-x-9-x-9-x-9-x-9-x-9-x-9-x-9---------|
B|-x-7-x-7-x-7-x-7-x-7-x-7-x-7-x-7-/-x-9-x-9-x-9-x-9-x-9-x-9-x-9-x-9---------|
G|-x-8-x-8-x-8-x-8-x-8-x-8-x-8-x-8-/-x-10x-10x-10x-10x-10x-10x-10x-10--------|
D|---------------------------------------------------------------------------|
A|---------------------------------------------------------------------------|
E|---------------------------------------------------------------------------|

Out Chorus - Keychange
e|-x-8-x-8-x-8-x-8-x-8-x-8-x-8-x-8-x-9-x-9-x-9-x-9-x-9-x-9-x-9-x-9-----------|
B|-x-9-x-9-x-9-x-9-x-9-x-9-x-9-x-9-x-9-x-9-x-9-x-9-x-9-x-9-x-9-x-9-----------|
G|-x-10x-10x-10x-10x-10x-10x-10x10-x10-x10-x10-x10-x10-x10-x10-x-10-----------|
D|---------------------------------------------------------------------------|
A|---------------------------------------------------------------------------|
E|---------------------------------------------------------------------------|

Then in the end it goes up to this
e|-x-11-x-11-x-11-x-11-x-11-x-11-x-11-x-11-------|
B|-x-11-x-11-x-11-x-11-x-11-x-11-x-11-x-11-------|
G|-x-12-x-12-x-12-x-12-x-12-x-12-x-12-x-12-------|
D|-----------------------------------------------|
A|-----------------------------------------------|
E|-----------------------------------------------|

I think thats it
If anythings wrong, drop me a line and let me know!! :D
| /  slide up
| \  slide down
| h  hammer-on
| p  pull-off
| ~  vibrato
| +  harmonic
| x  Mute note
===============================================================================

Suggest correction
Give kudos to tab author, rate the tab!
1 2 3 4 5
comments
print report bad tab
guest
You may want to rate the tab now too:
select rating
Wanna post a correction for this tab? Suggest correction