Oops, an error
Loading. Please wait.

Tijuana Sunrise tab

28 views 18 this week
no commentswrite comment
1 2 3 4 5
2 more votes to show rating
add to favorites
×
Save as Personal and add changes to this tab that will be seen only by you. Learn more ›
×
You can save this tab as Personal to edit and correct it or add notes. All changes will be seen only by you. Learn more »
launch autoscroll
font size
0
reset
how to read this tab
guitar tuner
edit
Autoscroll
slow
fast
+/-
esc
set tempo
stop
Artist: Goldfinger
Song: Tijuana Sunrise
Album: The Knife [2017]


[Intro]
Guitar 1
  C#                      C#                      G#                      G#
         .           .           .           .           .           .           .           .
e|-------4-----------4---|-------4-----------4---|-------4-----------4---|-------4-----------4---|
B|-------6-----------6---|-------6-----------6---|-------4-----------4---|-------4-----------4---|
G|-------6-----------6---|-------6-----------6---|-------5-----------5---|-------5-----------5---|
D|-------6-----------6---|-------6-----------6---|-------6-----------6---|-------6-----------6---|
A|-----------------------|-----------------------|-----------------------|-----------------------|
E|-----------------------|-----------------------|-----------------------|-----------------------|

Guitar 1
  D#m                     D#m                     F#                      F#
         .           .           .           .           .           .           .           .
e|-------6-----------6---|-------6-----------6---|-------2-----------2---|-------2-----------2---|
B|-------7-----------7---|-------7-----------7---|-------2-----------2---|-------2-----------2---|
G|-------8-----------8---|-------8-----------8---|-------3-----------3---|-------3-----------3---|
D|-------8-----------8---|-------8-----------8---|-------4-----------4---|-------4-----------4---|
A|-----------------------|-----------------------|-----------------------|-----------------------|
E|-----------------------|-----------------------|-----------------------|-----------------------|


[Verse]
Guitar 1
  C#                      C#                      G#                      G#
         .           .           .           .           .           .           .           .
e|-------4-----------4---|-------4-----------4---|-------4-----------4---|-------4-----------4---|
B|-------6-----------6---|-------6-----------6---|-------4-----------4---|-------4-----------4---|
G|-------6-----------6---|-------6-----------6---|-------5-----------5---|-------5-----------5---|
D|-------6-----------6---|-------6-----------6---|-------6-----------6---|-------6-----------6---|
A|-----------------------|-----------------------|-----------------------|-----------------------|
E|-----------------------|-----------------------|-----------------------|-----------------------|
  Blacked out again down in Mexico.
  
Guitar 1
  D#m                     D#m                     F#                      F#
         .           .           .           .           .           .           .           .
e|-------6-----------6---|-------6-----------6---|-------2-----------2---|-------2-----------2---|
B|-------7-----------7---|-------7-----------7---|-------2-----------2---|-------2-----------2---|
G|-------8-----------8---|-------8-----------8---|-------3-----------3---|-------3-----------3---|
D|-------8-----------8---|-------8-----------8---|-------4-----------4---|-------4-----------4---|
A|-----------------------|-----------------------|-----------------------|-----------------------|
E|-----------------------|-----------------------|-----------------------|-----------------------|
  Jose Cuervo got me again, oh, oh, oh.

Guitar 1
  C#                      C#                      G#                      G#
         .           .           .           .           .           .           .           .
e|-------4-----------4---|-------4-----------4---|-------4-----------4---|-------4-----------4---|
B|-------6-----------6---|-------4-----------4---|-------4-----------4---|-------4-----------4---|
G|-------6-----------6---|-------5-----------5---|-------5-----------5---|-------5-----------5---|
D|-------6-----------6---|-------6-----------6---|-------6-----------6---|-------6-----------6---|
A|-----------------------|-----------------------|-----------------------|-----------------------|
E|-----------------------|-----------------------|-----------------------|-----------------------|
Guitar 2
e|-----------------------|-----------------------|-----------------------|-----------------------|
B|----------6------------|----------6------------|---------13------------|-----------------------|
G|----------------6-----6|----------------6------|---------------13----13|-----------------------|
D|-------6-----------6---|-------6-----------6---|------13----------13---|13h15-13h15-13\--------|
A|-4---------------------|-4---------------------|11---------------------|13----13----13\--------|
E|-----------------------|-----------------------|-----------------------|-----------------------|
 Wasted again with El Diablo

Guitar 1
  D#m                     D#m                     F#                      F#
         .           .           .           .           .           .           .           .
e|-------6-----------6---|-------6-----------6---|-------2-----------2---|-------2-----------2---|
B|-------7-----------7---|-------7-----------7---|-------2-----------2---|-------2-----------2---|
G|-------8-----------8---|-------8-----------8---|-------3-----------3---|-------3-----------3---|
D|-------8-----------8---|-------8-----------8---|-------4-----------4---|-------4-----------4---|
A|-----------------------|-----------------------|-----------------------|-----------------------|
E|-----------------------|-----------------------|-----------------------|-----------------------|
Guitar 2
e|-----------------------|-----------------------|-----------------------|-----------------------|
B|----------7------------|-------------7---------|---------11------------|---------11------------|
G|----------------8-----8|-------------------8---|------------11----11---|---------------11------|
D|-------8-----------8---|-------8---------------|------11-------11------|------11---------------|
A|-6---------------------|-6---------------------|-9---------------------|-9---------------------|
E|-----------------------|-----------------------|-----------------------|-----------------------|
  Alcohol my only friend

Guitar 1
 C#                      C#                      G#                      G#
         .           .           .           .           .           .           .           .
e|-------4-----------4---|-------4-----------4---|-------4-----------4---|-------4-----------4---|
B|-------6-----------6---|-------6-----------4---|-------4-----------4---|-------4-----------4---|
G|-------6-----------6---|-------6-----------5---|-------5-----------5---|-------5-----------5---|
D|-------6-----------6---|-------6-----------6---|-------6-----------6---|-------6-----------6---|
A|-----------------------|-----------------------|-----------------------|-----------------------|
E|-----------------------|-----------------------|-----------------------|-----------------------|
Guitar 2
e|-----------------------|-----------------------|-----------------------|-----------------------|
B|----------6------------|----------6------------|---------13------------|---------13------------|
G|----------------6-----6|----------------6------|---------------13----13|---------------13----13|
D|-------6-----------6---|-------6-----------6---|------13----------13---|------13----------13---|
A|-4---------------------|-4---------------------|11---------------------|11---------------------|
E|-----------------------|-----------------------|-----------------------|-----------------------|
  Smash the bottles on the reef. Wash the dirt off of my feet.

Guitar 1
D#m                     D#m                     F#m                     F#m
         .           .           .           .
e|-------6-----------6---|-------6-----------6---|-2---------------------|(2)--------------------|
B|-------7-----------7---|-------7-----------7---|-2---------------------|(2)--------------------|
G|-------8-----------8---|-------8-----------8---|-3---------------------|(2)--------------------|
D|-------8-----------8---|-------8-----------8---|-4---------------------|(4)--------------------|
A|-----------------------|-----------------------|-4---------------------|(4)--------------------|
E|-----------------------|-----------------------|-----------------------|-----------------------|
Guitar 2
e|-----------------------|-----------------------|-----------------------|-----------------------|
B|----------7------------|----------7------------|-10--------------------|(10)-------------------|
G|----------------8-----8|----------------8------|-11--------------------|(11)-------------------|
D|-------8-----------8---|-------8---------------|-11--------------------|(11)-------------------|
A|-6---------------------|-6---------------------|-9---------------------|-(9)-------------------|
E|-----------------------|-----------------------|-----------------------|-----------------------|
  That was the summer of my life.


[Chorus]
Guitar 1
  C#                      G#                      D#m                     F#
         .           .           .           .           .           .           .           .
e|-------4-----------4---|-------4-----------4---|-------6-----------6---|-------2-----------2---|
B|-------6-----------6---|-------4-----------4---|-------7-----------7---|-------2-----------2---|
G|-------6-----------6---|-------5-----------5---|-------8-----------8---|-------3-----------3---|
D|-------6-----------6---|-------6-----------6---|-------8-----------8---|-------4-----------4---|
A|-----------------------|-----------------------|-----------------------|-----------------------|
E|-----------------------|-----------------------|-----------------------|-----------------------|
Guitar 2
e|-----------------------|-----------------------|-----------------------|-----------------------|
B|----------6------------|---------13------------|----------7------------|-----------------------|
G|----------------6------|---------------13------|----------------8------|---------11-11h13-11---|
D|-------6-----------6---|------13----------13---|-------8-----------8---|------11----11----11---|
A|-4--------------------4|11---------------------|-6---------------------|-9---------------------|
E|-----------------------|-----------------------|-----------------------|-----------------------|
  I've been drinking to forget just how good it was.

Guitar 1
  C#                      G#                      D#m                     F#
         .           .           .           .           .           .           .           .
e|-------4-----------4---|-------4-----------4---|-------6-----------6---|-------2-----------2---|
B|-------6-----------6---|-------4-----------4---|-------7-----------7---|-------2-----------2---|
G|-------6-----------6---|-------5-----------5---|-------8-----------8---|-------3-----------3---|
D|-------6-----------6---|-------6-----------6---|-------8-----------8---|-------4-----------4---|
A|-----------------------|-----------------------|-----------------------|-----------------------|
E|-----------------------|-----------------------|-----------------------|-----------------------|
Guitar 2
e|-----------------------|-----------------------|-----------------------|-----------------------|
B|----------6------------|---------13------------|----------7------------|-----------------------|
G|----------------6------|---------------13------|----------------8------|-----------------------|
D|-------6-----------6---|------13----------13---|-------8-----------8---|-------------------4--3|
A|-4--------------------4|11---------------------|-6---------------------|-9--------------4------|
E|-----------------------|-----------------------|-----------------------|-----------------------|
  I was drinking with you, then I'm drinking till noon, now I'm drinking by myself

Guitar 1
  C#                      G#                      D#m                     F#
         .           .           .           .           .           .           .           .
e|-------4-----------4---|-------4-----------4---|-------6-----------6---|-------2-----------2---|
B|-------6-----------6---|-------4-----------4---|-------7-----------7---|-------2-----------2---|
G|-------6-----------6---|-------5-----------5---|-------8-----------8---|-------3-----------3---|
D|-------6-----------6---|-------6-----------6---|-------8-----------8---|-------4-----------4---|
A|-----------------------|-----------------------|-----------------------|-----------------------|
E|-----------------------|-----------------------|-----------------------|-----------------------|
Guitar 2
e|-----------------------|-----------------------|-----------------------|-----------------------|
B|----------6------------|---------13------------|----------7------------|-----------------------|
G|----------------6------|---------------13------|----------------8------|-----------------------|
D|-------6-----------6---|------13----------13---|-------8-----------8---|-----------------------|
A|-4--------------------4|11---------------------|-6---------------------|-9-----------9p7---9---|
E|-----------------------|-----------------------|-----------------------|----------------9------|
  I've been drinking to forget 'bout the both of us.

Guitar 1
  C#                      G#                      D#m                     F#
         .           .           .           .           .           .           .           .
e|-------4-----------4---|-------4-----------4---|-------6-----------6---|-------2-----------2---|
B|-------6-----------6---|-------4-----------4---|-------7-----------7---|-------2-----------2---|
G|-------6-----------6---|-------5-----------5---|-------8-----------8---|-------3-----------3---|
D|-------6-----------6---|-------6-----------6---|-------8-----------8---|-------4-----------4---|
A|-----------------------|-----------------------|-----------------------|-----------------------|
E|-----------------------|-----------------------|-----------------------|-----------------------|
Guitar 2
e|-----------------------|-----------------------|-----------------------|-----------------------|
B|----------6------------|---------13------------|----------7------------|-----------------------|
G|----------------6------|---------------13------|----------------8------|-----------------------|
D|-------6-----------6---|------13----------13---|-------8-----------8---|-----------------------|
A|-4--------------------4|11---------------------|-6---------------------|-9-----------9p7---9---|
E|-----------------------|-----------------------|-----------------------|----------------9------|
  I was drinking with you, then I'm drinking till noon,  now I'm drinking by myself

Guitar 1
  C#                      G#                      D#m                     F#
         .           .           .           .           .           .           .           .
e|-------4-----------4---|-------4-----------4---|-------6-----------6---|-------2-----------2---|
B|-------6-----------6---|-------4-----------4---|-------7-----------7---|-------2-----------2---|
G|-------6-----------6---|-------5-----------5---|-------8-----------8---|-------3-----------3---|
D|-------6-----------6---|-------6-----------6---|-------8-----------8---|-------4-----------4---|
A|-----------------------|-----------------------|-----------------------|-----------------------|
E|-----------------------|-----------------------|-----------------------|-----------------------|
Guitar 2                                                                  11 ++ 22 ++ 33 ++ 44 ++
e|-----------------------|-----------------------|-----------------------|-----------------------|
B|----------6------------|---------13------------|----------7------------|-----------------------|
G|----------------6------|---------------13------|----------------8------|---------11-11/13-11---|
D|-------6-----------6---|------13----------13---|-------8-----------8---|------11----------11---|
A|-4--------------------4|11---------------------|-6---------------------|-9---------------------|
E|-----------------------|-----------------------|-----------------------|-----------------------|
  Tijuana sunrise shine upon my face, oh, oh, oh.

Guitar 1
  C#                      G#                      D#m                     F#
         .           .           .           .           .           .           .           .
e|-------4-----------4---|-------4-----------4---|-------6-----------6---|-------2-----------2---|
B|-------6-----------6---|-------4-----------4---|-------7-----------7---|-------2-----------2---|
G|-------6-----------6---|-------5-----------5---|-------8-----------8---|-------3-----------3---|
D|-------6-----------6---|-------6-----------6---|-------8-----------8---|-------4-----------4---|
A|-----------------------|-----------------------|-----------------------|-----------------------|
E|-----------------------|-----------------------|-----------------------|-----------------------|
Guitar 2
e|-----------------------|-----------------------|-----------------------|-----------------------|
B|----------6------------|---------13------------|----------7------------|-----------------------|
G|----------------6------|---------------13------|----------------8------|-----------------------|
D|-------6-----------6---|------13----------13---|-------8-----------8---|-----------------------|
A|-4--------------------4|11---------------------|-6---------------------|-9-----------9p7---9---|
E|-----------------------|-----------------------|-----------------------|----------------9------|
  Tijuana sunrise shine upon my face


[Verse]
Guitar 1
  C#                      C#                      G#                      G#
         .           .           .           .           .           .           .           .
e|-------4-----------4---|-------4-----------4---|-------4-----------4---|-------4-----------4---|
B|-------6-----------6---|-------6-----------6---|-------4-----------4---|-------4-----------4---|
G|-------6-----------6---|-------6-----------6---|-------5-----------5---|-------5-----------5---|
D|-------6-----------6---|-------6-----------6---|-------6-----------6---|-------6-----------6---|
A|-----------------------|-----------------------|-----------------------|-----------------------|
E|-----------------------|-----------------------|-----------------------|-----------------------|
Guitar 2
                          11 ++ 22 ++ 33 ++ 44 ++
e|-----------------------|-----------------------|-----------------------|-----------------------|
B|-----------------------|-----------------------|-----------------------|-----------------------|
G|-----------------------|-----------------------|-----------------------|-----------------------|
D|----------3--6---------|----------3--6---------|----------8-11---------|----------8-11---------|
A|-4---------------------|----4--4---------------|-9---------------------|----9--9---------------|
E|-----------------------|-----------------------|-----------------------|-----------------------|
PM¦----------------------------------------------------------------------------------------------¦
  I fell in love down in Mexico.

Guitar 1
  D#m                     D#m                     F#                      F#
         .           .           .           .           .           .           .           .
e|-------6-----------6---|-------6-----------6---|-------2-----------2---|-------2-----------2---|
B|-------7-----------7---|-------7-----------7---|-------2-----------2---|-------2-----------2---|
G|-------8-----------8---|-------8-----------8---|-------3-----------3---|-------3-----------3---|
D|-------8-----------8---|-------8-----------8---|-------4-----------4---|-------4-----------4---|
A|-----------------------|-----------------------|-----------------------|-----------------------|
E|-----------------------|-----------------------|-----------------------|-----------------------|
  She took me for everything I had, oh, oh, oh.

Guitar 1
  C#                      C#                      G#                      G#
         .           .           .           .           .           .           .           .
e|-------4-----------4---|-------4-----------4---|-------4-----------4---|-------4-----------4---|
B|-------6-----------6---|-------6-----------6---|-------4-----------4---|-------4-----------4---|
G|-------6-----------6---|-------6-----------6---|-------5-----------5---|-------5-----------5---|
D|-------6-----------6---|-------6-----------6---|-------6-----------6---|-------6-----------6---|
A|-----------------------|-----------------------|-----------------------|-----------------------|
E|-----------------------|-----------------------|-----------------------|-----------------------|
Guitar 2
e|-----------------------|-----------------------|-----------------------|-----------------------|
B|----------6------------|----------6------------|---------13------------|-----------------------|
G|----------------6-----6|----------------6------|---------------13----13|-----------------------|
D|-------6-----------6---|-------6-----------6---|------13----------13---|13h15-13h15-13\--------|
A|-4---------------------|-4---------------------|11---------------------|13----13----13\--------|
E|-----------------------|-----------------------|-----------------------|-----------------------|
  Woke up in jail in Rosarito, federales took it all.

Guitar 1
  D#m                     D#m                     F#                      F#
         .           .           .           .           .           .           .           .
e|-------6-----------6---|-------6-----------6---|-------2-----------2---|-------2-----------2---|
B|-------7-----------7---|-------7-----------7---|-------2-----------2---|-------2-----------2---|
G|-------8-----------8---|-------8-----------8---|-------3-----------3---|-------3-----------3---|
D|-------8-----------8---|-------8-----------8---|-------4-----------4---|-------4-----------4---|
A|-----------------------|-----------------------|-----------------------|-----------------------|
E|-----------------------|-----------------------|-----------------------|-----------------------|
Guitar 2
e|-----------------------|-----------------------|-----------------------|-----------------------|
B|----------7------------|-------------7---------|---------11------------|---------11------------|
G|----------------8-----8|-------------------8---|------------11----11---|---------------11------|
D|-------8-----------8---|-------8---------------|------11-------11------|------11---------------|
A|-6---------------------|-6---------------------|-9---------------------|-9---------------------|
E|-----------------------|-----------------------|-----------------------|-----------------------|
  I'm out of cash, about to crash.

Guitar 1
 C#                      C#                      G#                      G#
         .           .           .           .           .           .           .           .
e|-------4-----------4---|-------4-----------4---|-------4-----------4---|-------4-----------4---|
B|-------6-----------6---|-------6-----------4---|-------4-----------4---|-------4-----------4---|
G|-------6-----------6---|-------6-----------5---|-------5-----------5---|-------5-----------5---|
D|-------6-----------6---|-------6-----------6---|-------6-----------6---|-------6-----------6---|
A|-----------------------|-----------------------|-----------------------|-----------------------|
E|-----------------------|-----------------------|-----------------------|-----------------------|
Guitar 2
e|-----------------------|-----------------------|-----------------------|-----------------------|
B|----------6------------|----------6------------|---------13------------|---------13------------|
G|----------------6-----6|----------------6------|---------------13----13|---------------13----13|
D|-------6-----------6---|-------6-----------6---|------13----------13---|------13----------13---|
A|-4---------------------|-4---------------------|11---------------------|11---------------------|
E|-----------------------|-----------------------|-----------------------|-----------------------|
  Smash the bottles on the reef. Wash the dirt off of my feet.

Guitar 1
D#m                     D#m                     F#m                     F#m
         .           .           .           .
e|-------6-----------6---|-------6-----------6---|-2---------------------|(2)--------------------|
B|-------7-----------7---|-------7-----------7---|-2---------------------|(2)--------------------|
G|-------8-----------8---|-------8-----------8---|-3---------------------|(2)--------------------|
D|-------8-----------8---|-------8-----------8---|-4---------------------|(4)--------------------|
A|-----------------------|-----------------------|-4---------------------|(4)--------------------|
E|-----------------------|-----------------------|-----------------------|-----------------------|
Guitar 2
e|-----------------------|-----------------------|-----------------------|-----------------------|
B|----------7------------|----------7------------|-10--------------------|(10)-------------------|
G|----------------8-----8|----------------8------|-11--------------------|(11)-------------------|
D|-------8-----------8---|-------8---------------|-11--------------------|(11)-------------------|
A|-6---------------------|-6---------------------|-9---------------------|-(9)-------------------|
E|-----------------------|-----------------------|-----------------------|-----------------------|
  That was the summer of my life.


[Chorus]
Guitar 1
  C#                      G#                      D#m                     F#
         .           .           .           .           .           .           .           .
e|-------4-----------4---|-------4-----------4---|-------6-----------6---|-------2-----------2---|
B|-------6-----------6---|-------4-----------4---|-------7-----------7---|-------2-----------2---|
G|-------6-----------6---|-------5-----------5---|-------8-----------8---|-------3-----------3---|
D|-------6-----------6---|-------6-----------6---|-------8-----------8---|-------4-----------4---|
A|-----------------------|-----------------------|-----------------------|-----------------------|
E|-----------------------|-----------------------|-----------------------|-----------------------|
Guitar 2
e|-----------------------|-----------------------|-----------------------|-----------------------|
B|----------6------------|---------13------------|----------7------------|-----------------------|
G|----------------6------|---------------13------|----------------8------|---------11-11h13-11---|
D|-------6-----------6---|------13----------13---|-------8-----------8---|------11----11----11---|
A|-4--------------------4|11---------------------|-6---------------------|-9---------------------|
E|-----------------------|-----------------------|-----------------------|-----------------------|
  I've been drinking to forget just how good it was.

Guitar 1
  C#                      G#                      D#m                     F#
         .           .           .           .           .           .           .           .
e|-------4-----------4---|-------4-----------4---|-------6-----------6---|-------2-----------2---|
B|-------6-----------6---|-------4-----------4---|-------7-----------7---|-------2-----------2---|
G|-------6-----------6---|-------5-----------5---|-------8-----------8---|-------3-----------3---|
D|-------6-----------6---|-------6-----------6---|-------8-----------8---|-------4-----------4---|
A|-----------------------|-----------------------|-----------------------|-----------------------|
E|-----------------------|-----------------------|-----------------------|-----------------------|
Guitar 2
e|-----------------------|-----------------------|-----------------------|-----------------------|
B|----------6------------|---------13------------|----------7------------|-----------------------|
G|----------------6------|---------------13------|----------------8------|-----------------------|
D|-------6-----------6---|------13----------13---|-------8-----------8---|-------------------4--3|
A|-4--------------------4|11---------------------|-6---------------------|-9--------------4------|
E|-----------------------|-----------------------|-----------------------|-----------------------|
  I was drinking with you, then I'm drinking till noon, now I'm drinking by myself

Guitar 1
  C#                      G#                      D#m                     F#
         .           .           .           .           .           .           .           .
e|-------4-----------4---|-------4-----------4---|-------6-----------6---|-------2-----------2---|
B|-------6-----------6---|-------4-----------4---|-------7-----------7---|-------2-----------2---|
G|-------6-----------6---|-------5-----------5---|-------8-----------8---|-------3-----------3---|
D|-------6-----------6---|-------6-----------6---|-------8-----------8---|-------4-----------4---|
A|-----------------------|-----------------------|-----------------------|-----------------------|
E|-----------------------|-----------------------|-----------------------|-----------------------|
Guitar 2
e|-----------------------|-----------------------|-----------------------|-----------------------|
B|----------6------------|---------13------------|----------7------------|-----------------------|
G|----------------6------|---------------13------|----------------8------|-----------------------|
D|-------6-----------6---|------13----------13---|-------8-----------8---|-----------------------|
A|-4--------------------4|11---------------------|-6---------------------|-9-----------9p7---9---|
E|-----------------------|-----------------------|-----------------------|----------------9------|
  I've been drinking to forget 'bout the both of us.

Guitar 1
  C#                      G#                      D#m                     F#
         .           .           .           .           .           .           .           .
e|-------4-----------4---|-------4-----------4---|-------6-----------6---|-------2-----------2---|
B|-------6-----------6---|-------4-----------4---|-------7-----------7---|-------2-----------2---|
G|-------6-----------6---|-------5-----------5---|-------8-----------8---|-------3-----------3---|
D|-------6-----------6---|-------6-----------6---|-------8-----------8---|-------4-----------4---|
A|-----------------------|-----------------------|-----------------------|-----------------------|
E|-----------------------|-----------------------|-----------------------|-----------------------|
Guitar 2
e|-----------------------|-----------------------|-----------------------|-----------------------|
B|----------6------------|---------13------------|----------7------------|-----------------------|
G|----------------6------|---------------13------|----------------8------|-----------------------|
D|-------6-----------6---|------13----------13---|-------8-----------8---|-----------------------|
A|-4--------------------4|11---------------------|-6---------------------|-9-----------9p7---9---|
E|-----------------------|-----------------------|-----------------------|----------------9------|
  I was drinking with you, then I'm drinking till noon,  now I'm drinking by myself

Guitar 1
  C#                      G#                      D#m                     F#
         .           .           .           .           .           .           .           .
e|-------4-----------4---|-------4-----------4---|-------6-----------6---|-------2-----------2---|
B|-------6-----------6---|-------4-----------4---|-------7-----------7---|-------2-----------2---|
G|-------6-----------6---|-------5-----------5---|-------8-----------8---|-------3-----------3---|
D|-------6-----------6---|-------6-----------6---|-------8-----------8---|-------4-----------4---|
A|-----------------------|-----------------------|-----------------------|-----------------------|
E|-----------------------|-----------------------|-----------------------|-----------------------|
Guitar 2                                                                  11 ++ 22 ++ 33 ++ 44 ++
e|-----------------------|-----------------------|-----------------------|-----------------------|
B|----------6------------|---------13------------|----------7------------|-----------------------|
G|----------------6------|---------------13------|----------------8------|---------11-11/13-11---|
D|-------6-----------6---|------13----------13---|-------8-----------8---|------11----------11---|
A|-4--------------------4|11---------------------|-6---------------------|-9---------------------|
E|-----------------------|-----------------------|-----------------------|-----------------------|
  Tijuana sunrise shine upon my face, oh, oh, oh.

Guitar 1
  C#                      G#                      D#m                     F#
         .           .           .           .           .           .           .           .
e|-------4-----------4---|-------4-----------4---|-------6-----------6---|-------2-----------2---|
B|-------6-----------6---|-------4-----------4---|-------7-----------7---|-------2-----------2---|
G|-------6-----------6---|-------5-----------5---|-------8-----------8---|-------3-----------3---|
D|-------6-----------6---|-------6-----------6---|-------8-----------8---|-------4-----------4---|
A|-----------------------|-----------------------|-----------------------|-----------------------|
E|-----------------------|-----------------------|-----------------------|-----------------------|
Guitar 2
e|-----------------------|-----------------------|-----------------------|-----------------------|
B|----------6------------|---------13------------|----------7------------|-----------------------|
G|----------------6------|---------------13------|----------------8------|-----------------------|
D|-------6-----------6---|------13----------13---|-------8-----------8---|-----------------------|
A|-4--------------------4|11---------------------|-6---------------------|-9-----------9p7---9---|
E|-----------------------|-----------------------|-----------------------|----------------9------|
  Tijuana sunrise shine upon my face.


[Horn Solo]
Guitar 1
  C#                      C#                      G#                      G#
         .           .           .           .           .           .           .           .
e|-------4-----------4---|-------4-----------4---|-------4-----------4---|-------4-----------4---|
B|-------6-----------6---|-------6-----------6---|-------4-----------4---|-------4-----------4---|
G|-------6-----------6---|-------6-----------6---|-------5-----------5---|-------5-----------5---|
D|-------6-----------6---|-------6-----------6---|-------6-----------6---|-------6-----------6---|
A|-----------------------|-----------------------|-----------------------|-----------------------|
E|-----------------------|-----------------------|-----------------------|-----------------------|

Guitar 1
  D#m                     D#m                     F#                      F#
         .           .           .           .           .           .           .           .
e|-------6-----------6---|-------6-----------6---|-------2-----------2---|-------2-----------2---|
B|-------7-----------7---|-------7-----------7---|-------2-----------2---|-------2-----------2---|
G|-------8-----------8---|-------8-----------8---|-------3-----------3---|-------3-----------3---|
D|-------8-----------8---|-------8-----------8---|-------4-----------4---|-------4-----------4---|
A|-----------------------|-----------------------|-----------------------|-----------------------|
E|-----------------------|-----------------------|-----------------------|-----------------------|

Guitar 1
  C#                      C#                      G#                      G#
         .           .           .           .           .           .           .           .
e|-------4-----------4---|-------4-----------4---|-------4-----------4---|-------4-----------4---|
B|-------6-----------6---|-------6-----------6---|-------4-----------4---|-------4-----------4---|
G|-------6-----------6---|-------6-----------6---|-------5-----------5---|-------5-----------5---|
D|-------6-----------6---|-------6-----------6---|-------6-----------6---|-------6-----------6---|
A|-----------------------|-----------------------|-----------------------|-----------------------|
E|-----------------------|-----------------------|-----------------------|-----------------------|
Guitar 2
e|-----------------------|-----------------------|-----------------------|-----------------------|
B|----------6------------|----------6------------|---------13------------|-----------------------|
G|----------------6-----6|----------------6------|---------------13----13|-----------------------|
D|-------6-----------6---|-------6-----------6---|------13----------13---|13h15-13h15-13\--------|
A|-4---------------------|-4---------------------|11---------------------|13----13----13\--------|
E|-----------------------|-----------------------|-----------------------|-----------------------|

Guitar 1
  D#m                     D#m                     F#                      F#
         .           .           .           .           .           .           .           .
e|-------6-----------6---|-------6-----------6---|-------2-----------2---|-------2-----------2---|
B|-------7-----------7---|-------7-----------7---|-------2-----------2---|-------2-----------2---|
G|-------8-----------8---|-------8-----------8---|-------3-----------3---|-------3-----------3---|
D|-------8-----------8---|-------8-----------8---|-------4-----------4---|-------4-----------4---|
A|-----------------------|-----------------------|-----------------------|-----------------------|
E|-----------------------|-----------------------|-----------------------|-----------------------|
Guitar 2
e|-----------------------|-----------------------|-----------------------|-----------------------|
B|----------7------------|-------------7---------|---------11------------|---------11------------|
G|----------------8-----8|-------------------8---|------------11----11---|---------------11------|
D|-------8-----------8---|-------8---------------|------11-------11------|------11---------------|
A|-6---------------------|-6---------------------|-9---------------------|-9---------------------|
E|-----------------------|-----------------------|-----------------------|-----------------------|

[Chorus]
Guitar 1
  C#                      G#                      D#m                     F#
         .           .           .           .           .           .           .           .
e|-------4-----------4---|-------4-----------4---|-------6-----------6---|-------2-----------2---|
B|-------6-----------6---|-------4-----------4---|-------7-----------7---|-------2-----------2---|
G|-------6-----------6---|-------5-----------5---|-------8-----------8---|-------3-----------3---|
D|-------6-----------6---|-------6-----------6---|-------8-----------8---|-------4-----------4---|
A|-----------------------|-----------------------|-----------------------|-----------------------|
E|-----------------------|-----------------------|-----------------------|-----------------------|
Guitar 2
e|-----------------------|-----------------------|-----------------------|-----------------------|
B|----------6------------|---------13------------|----------7------------|-----------------------|
G|----------------6------|---------------13------|----------------8------|---------11-11h13-11---|
D|-------6-----------6---|------13----------13---|-------8-----------8---|------11----11----11---|
A|-4--------------------4|11---------------------|-6---------------------|-9---------------------|
E|-----------------------|-----------------------|-----------------------|-----------------------|
  I've been drinking to forget just how good it was.

Guitar 1
  C#                      G#                      D#m                     F#
         .           .           .           .           .           .           .           .
e|-------4-----------4---|-------4-----------4---|-------6-----------6---|-------2-----------2---|
B|-------6-----------6---|-------4-----------4---|-------7-----------7---|-------2-----------2---|
G|-------6-----------6---|-------5-----------5---|-------8-----------8---|-------3-----------3---|
D|-------6-----------6---|-------6-----------6---|-------8-----------8---|-------4-----------4---|
A|-----------------------|-----------------------|-----------------------|-----------------------|
E|-----------------------|-----------------------|-----------------------|-----------------------|
Guitar 2
e|-----------------------|-----------------------|-----------------------|-----------------------|
B|----------6------------|---------13------------|----------7------------|-----------------------|
G|----------------6------|---------------13------|----------------8------|-----------------------|
D|-------6-----------6---|------13----------13---|-------8-----------8---|-------------------4--3|
A|-4--------------------4|11---------------------|-6---------------------|-9--------------4------|
E|-----------------------|-----------------------|-----------------------|-----------------------|
  I was drinking with you, then I'm drinking till noon, now I'm drinking by myself

Guitar 1
  C#                      G#                      D#m                     F#
         .           .           .           .           .           .           .           .
e|-------4-----------4---|-------4-----------4---|-------6-----------6---|-------2-----------2---|
B|-------6-----------6---|-------4-----------4---|-------7-----------7---|-------2-----------2---|
G|-------6-----------6---|-------5-----------5---|-------8-----------8---|-------3-----------3---|
D|-------6-----------6---|-------6-----------6---|-------8-----------8---|-------4-----------4---|
A|-----------------------|-----------------------|-----------------------|-----------------------|
E|-----------------------|-----------------------|-----------------------|-----------------------|
Guitar 2
e|-----------------------|-----------------------|-----------------------|-----------------------|
B|----------6------------|---------13------------|----------7------------|-----------------------|
G|----------------6------|---------------13------|----------------8------|-----------------------|
D|-------6-----------6---|------13----------13---|-------8-----------8---|-----------------------|
A|-4--------------------4|11---------------------|-6---------------------|-9-----------9p7---9---|
E|-----------------------|-----------------------|-----------------------|----------------9------|
  I've been drinking to forget 'bout the both of us.

Guitar 1
  C#                      G#                      D#m                     F#
         .           .           .           .           .           .           .           .
e|-------4-----------4---|-------4-----------4---|-------6-----------6---|-------2-----------2---|
B|-------6-----------6---|-------4-----------4---|-------7-----------7---|-------2-----------2---|
G|-------6-----------6---|-------5-----------5---|-------8-----------8---|-------3-----------3---|
D|-------6-----------6---|-------6-----------6---|-------8-----------8---|-------4-----------4---|
A|-----------------------|-----------------------|-----------------------|-----------------------|
E|-----------------------|-----------------------|-----------------------|-----------------------|
Guitar 2
e|-----------------------|-----------------------|-----------------------|-----------------------|
B|----------6------------|---------13------------|----------7------------|-----------------------|
G|----------------6------|---------------13------|----------------8------|-----------------------|
D|-------6-----------6---|------13----------13---|-------8-----------8---|-----------------------|
A|-4--------------------4|11---------------------|-6---------------------|-9-----------9p7---9---|
E|-----------------------|-----------------------|-----------------------|----------------9------|
  I was drinking with you, then I'm drinking till noon,  now I'm drinking by myself

Guitar 1
  C#                      G#                      D#m                     F#
         .           .           .           .           .           .           .           .
e|-------4-----------4---|-------4-----------4---|-------6-----------6---|-------2-----------2---|
B|-------6-----------6---|-------4-----------4---|-------7-----------7---|-------2-----------2---|
G|-------6-----------6---|-------5-----------5---|-------8-----------8---|-------3-----------3---|
D|-------6-----------6---|-------6-----------6---|-------8-----------8---|-------4-----------4---|
A|-----------------------|-----------------------|-----------------------|-----------------------|
E|-----------------------|-----------------------|-----------------------|-----------------------|
Guitar 2
e|-----------------------|-----------------------|-----------------------|-----------------------|
B|----------6------------|---------13------------|----------7------------|-----------------------|
G|----------------6------|---------------13------|----------------8------|---------11-11/13-11---|
D|-------6-----------6---|------13----------13---|-------8-----------8---|------11----------11---|
A|-4--------------------4|11---------------------|-6---------------------|-9---------------------|
E|-----------------------|-----------------------|-----------------------|-----------------------|
  Tijuana sunrise shine upon my face, oh, oh, oh.

Guitar 1
  C#                      G#                      D#m                     F#
         .           .           .           .           .           .           .           .
e|-------4-----------4---|-------4-----------4---|-------6-----------6---|-------2-----------2---|
B|-------6-----------6---|-------4-----------4---|-------7-----------7---|-------2-----------2---|
G|-------6-----------6---|-------5-----------5---|-------8-----------8---|-------3-----------3---|
D|-------6-----------6---|-------6-----------6---|-------8-----------8---|-------4-----------4---|
A|-----------------------|-----------------------|-----------------------|-----------------------|
E|-----------------------|-----------------------|-----------------------|-----------------------|
Guitar 2
e|-----------------------|-----------------------|-----------------------|-----------------------|
B|----------6------------|---------13------------|----------7------------|-----------------------|
G|----------------6------|---------------13------|----------------8------|-----------------------|
D|-------6-----------6---|------13----------13---|-------8-----------8---|-----------------------|
A|-4--------------------4|11---------------------|-6---------------------|-9-----------9p7---9---|
E|-----------------------|-----------------------|-----------------------|----------------9------|
  Tijuana sunrise shine upon my face

Guitar 1
  C#                      G#                      D#m                     F#
         .           .           .           .           .           .           .           .
e|-------4-----------4---|-------4-----------4---|-------6-----------6---|-------2-----------2---|
B|-------6-----------6---|-------4-----------4---|-------7-----------7---|-------2-----------2---|
G|-------6-----------6---|-------5-----------5---|-------8-----------8---|-------3-----------3---|
D|-------6-----------6---|-------6-----------6---|-------8-----------8---|-------4-----------4---|
A|-----------------------|-----------------------|-----------------------|-----------------------|
E|-----------------------|-----------------------|-----------------------|-----------------------|
Guitar 2
e|-----------------------|-----------------------|-----------------------|-----------------------|
B|----------6------------|---------13------------|----------7------------|-----------------------|
G|----------------6------|---------------13------|----------------8------|---------11-11/13-11---|
D|-------6-----------6---|------13----------13---|-------8-----------8---|------11----------11---|
A|-4--------------------4|11---------------------|-6---------------------|-9---------------------|
E|-----------------------|-----------------------|-----------------------|-----------------------|
  Tijuana sunrise shine upon my face, oh, oh, oh.

Guitar 1
  C#                      G#                      D#m                     F#
         .           .           .           .           .           .           .           .
e|-------4-----------4---|-------4-----------4---|-------6-----------6---|-------2-----------2---|
B|-------6-----------6---|-------4-----------4---|-------7-----------7---|-------2-----------2---|
G|-------6-----------6---|-------5-----------5---|-------8-----------8---|-------3-----------3---|
D|-------6-----------6---|-------6-----------6---|-------8-----------8---|-------4-----------4---|
A|-----------------------|-----------------------|-----------------------|-----------------------|
E|-----------------------|-----------------------|-----------------------|-----------------------|
Guitar 2
e|-----------------------|-----------------------|-----------------------|-----------------------|
B|----------6------------|---------13------------|----------7------------|-----------------------|
G|----------------6------|---------------13------|----------------8------|-----------------------|
D|-------6-----------6---|------13----------13---|-------8-----------8---|-----------------------|
A|-4--------------------4|11---------------------|-6---------------------|-9-----------9p7---9---|
E|-----------------------|-----------------------|-----------------------|----------------9------|
  Tijuana sunrise shine upon my face


***********************************

| x   Dead note
| p   Pull off
| h   Hammer on
| /   Slide up
| \   Slide down
| .   Cut off/Staccato (above note)

***********************************

            
            
Suggest correction
Creating personal tab
Creating personal tab
You can edit any tab online and save it as your Personal.

You can edit, replace or remove any tab part or add personal notes – all changes will be seen only by you.

Personal tabs can be accessed anytime from any device, even offline.
Learn more »
Give kudos to tab author, rate the tab!
1 2 3 4 5
comments
print report bad tab
guest
You may want to rate the tab now too:
select rating
Wanna post a correction for this tab? Suggest correction