Oops, an error
Loading. Please wait.

Wasted Bass Tab

749 views 1 this week
no commentswrite comment
1 2 3 4 5
2 more votes to show rating
add to favorites
launch autoscroll
font size
0
reset
guitar tuner
Autoscroll
slow
fast
+/-
esc
set tempo
stop
Help us to improve Ultimate-Guitar.com Take our survey!
×
Band:   Goldfinger
Song:   Wasted
Album:  Disconnection Notice

Tabbed by: Anthony Calderone


Verse:
---------------------------------------|
---------------------------------------|
-5-5-5-5-------------------------------|
----------5-5-5-5--3-3-3-3-3-3-3-3-----|

Pre-chorus
----------------------------------------------------------|
----------------------------------------------------------|
----------------------------------------------------------|
-5-5-5-5-5-5-5-5--3-3-3-3-3-3-3-3--5-5-5-5-5-5-5-5--3~----|

Chorus:
--------------------------------------------------------------------------|
----------------------------9-7-5--------------------------------7-5------|
-5-5----------------5-5-----------7----5-5---------------5-5---------7-5--|
-----555-3-333333-------555----------------555-3-333333------555----------|

Bridge: "became my enemy..."
-------------------------|
-9-7-5---7-5-------------|
-------7-----7-5---------|
-------------------------|

Pre-chorus (2)
----------------------------------------------------------------------|
----------------------------------------------------------------------|
----------------------------------------------------------------------|
-5-5-5-5-5-5-5-5--3-3-3-3-3-3-3-3--5-5-5-5-5-5-5-5---3~--3~--3~-------|

Chorus

Bridge 2
--------------------------|
-9-7-5--------------------|
-------75-3-2-0-----------|
--------------------------|

Interlude: "they said i had potential"
------------------------------------------------------------------------
------------------------------------------------------------------------
------------------------------------------------------------------------
-7-7-7-7--3-3-3-3--7-7-7-7--3-3-5-5---7-7-7-7--3-3-3-3--7-7-7-7--33-5~--

--------------------------|
-----------9-7-5----------|
-----------------7-5~-----|
-33-5~--------------------|

Chorus:
--------------------------------------------|
-7-5-----9-7-5------------------------------|
-----7-5-------7----then-regular-chorus-----|
--------------------------------------------|

Outro:
------------------------------------------|
----------------------------7-7-7-7~------|
-5-5--------------------------------------|
-----555-3-3333333333333333---------------|





Suggest correction
Give kudos to tab author, rate the tab!
1 2 3 4 5
comments
print report bad tab
guest
You may want to rate the tab now too:
select rating
Wanna post a correction for this tab? Suggest correction