Oops, an error
Loading. Please wait.

Rewind bass

103 views 6 this week
no commentswrite comment
1 2 3 4 5
3 more votes to show rating
add to favorites
×
Save as Personal and add changes to this tab that will be seen only by you. Learn more ›
×
You can save this tab as Personal to edit and correct it or add notes. All changes will be seen only by you. Learn more »
launch autoscroll
font size
0
reset
guitar tuner
edit
Autoscroll
slow
fast
+/-
esc
set tempo
stop
Author
Difficulty
Tabbed by: 6METAL6BASSIST6
E-mail: petergriffinav@gmail.com

Tuning: EADG

0:22

G|--------|
D|--------|
A|14\-----|
E|--------|

G|--------------------------------------------------------|
D|--------------------------------------------------------|
A|--------------------------------------------------------|
E|7---------/-11----------9-------9-------9-------9-------|

G|--------------------------------------------------------|
D|--------------------------------------------------------|
A|----------------------------------------6-------6-------|
E|7---------/-11----------9-------9-----------------------|

G|----------------------------------------------------------------|
D|----------------6---6---6---6---8---8---8---8---9---9---9---9---|
A|7---7---7---7---------------------------------------------------|
E|----------------------------------------------------------------|

G|----------------------------------------------------------------|
D|------------------------------------9-------9-------9-----------|
A|----------------------------------------------------------------|
E|9---9---9---9---9---9---9---9---9-------------------------------|

G|----------------------------------------------------------------|
D|----------------------------------------------------------------|
A|----------------------------------------------------------------|
E|7---------------------------------------------------------------|

G|--------------------------------------------------------------------------------|
D|--------------------------------------------------------------------------------|
A|--------------------------------------------------------------------------------|
E|--------------------------------------------------------------------------------|

0:46

G|----------------------------------------------------------------|
D|----------------------------------------------------------------|
A|7---7---7---7---7---7---7---7---7---7---7-------7-------7-------|
E|--------------------------------------------7-------7-------7---|

G|----------------------------------------------------------------|
D|----------------------------------------------------------------|
A|9---9---9---9---9---9---9---9---9---9---9---9---9---9---9---9---|
E|----------------------------------------------------------------|

G|----------------------------------------------------------------|
D|----------------------------------------------------------------|
A|7---7---7---7---7---7---7---7---7---7---7-------7-------7---7---|
E|--------------------------------------------7-------7-----------|

G|----------------------------------------------------------------|
D|----------------------------------------------------------------|
A|9---9---9---9---9---9---9---9---9---9---9---9---9-------9-------|
E|----------------------------------------------------------------|

G|----------------------------------------------------------------|
D|----------------------------------------------------------------|
A|7---------------7-----------------------------------------------|
E|--------------------------------0-------------------------------|

1:05

G|--------------------------------------------------------|
D|--------------------------------------------------------|
A|--------------------------------------------------------|
E|7---------/-11----------9-------9-------9-------9-------|

G|--------------------------------------------------------|
D|--------------------------------------------------------|
A|----------------------------------------6-------6-------|
E|7---------/-11----------9-------9-----------------------|

G|----------------------------------------------------------------|
D|----------------6---6---6---6---8---8---8---8---9---9---9---9---|
A|7---7---7---7---------------------------------------------------|
E|----------------------------------------------------------------|

G|----------------------------------------------------------------|
D|------------------------------------9-------9-------9-----------|
A|----------------------------------------------------------------|
E|9---9---9---9---9---9---9---9---9-------------------------------|

1:20

G|--------------------------------------------------------|
D|--------------------------------------------------------|
A|--------------------------------------------------------|
E|7---------/-11----------9-------9-------9-------9-------|

G|--------------------------------------------------------|
D|--------------------------------------------------------|
A|----------------------------------------6-------6-------|
E|7---------/-11----------9-------9-----------------------|

G|----------------------------------------------------------------|
D|----------------6---6---6---6---8---8---8---8---9---9---9---9---|
A|7---7---7---7---------------------------------------------------|
E|----------------------------------------------------------------|

G|----------------------------------------------------------------|
D|------------------------------------------------9---------------|
A|----------------------------------------------------------------|
E|9---9---9---9---9---9---9---9---9---9---9---9-------------------|

G|------------------------------------------------------------------------------------------------------------|
D|------------------------------------------------------------------------------------------------------------|
A|------------------------------------5---------------/-9-----------------7-----------------------------2-/---|
E|7-----------------------------------------------------------------------------------------0-----------------|

1:42

G|----------------------------------------------------------------|
D|----------------------------------------------------------------|
A|7---7---7---7---7---7---7---7---7---7---7-------7-------7-------|
E|--------------------------------------------7-------7-------7---|

G|----------------------------------------------------------------|
D|----------------------------------------------------------------|
A|9---9---9---9---9---9---9---9---9---9---9---9---11--9---11--9---|
E|----------------------------------------------------------------|

G|----------------------------------------------------------------|
D|----------------------------------------------------------------|
A|7---7---7---7---7---7---7---7---7---7---7-------7-------7-------|
E|--------------------------------------------7-------7-------7---|

G|----------------------------------------------------------------|
D|----------------------------------------11----------------------|
A|9---9---9---9---9---9---9---9---9---------------9-------9-------|
E|----------------------------------------------------------------|

G|----------------------------------------------------------------|
D|------------------------------------------------9-------9-------|
A|7---7---7---7---7---7---7---7---7---7---7---7-------7-----------|
E|----------------------------------------------------------------|

2:02

G|--------------------------------------------------------|
D|--------------------------------------------------------|
A|--------------------------------------------------------|
E|7-------7-/-11----------9-------------------------------|

G|--------------------------------------------------------|
D|--------------------------------------------------------| x2
A|--------------------------------------------------------|
E|7---------/-11----------9-------------------------------|

G|--------------------------------------------------------|
D|--------------------------------------------------------|
A|--------------------------------------------------------|
E|7---------/-11----------9-------9-----------------------|

G|--------------------------------------------------------|
D|--------------------------------------------------------|
A|--------------------------------------------------------|
E|7---------/-11----------9-------------------------------|

G|--------------------------------------------------------|
D|--------------------------------------------------------|
A|----------------------------------------6-------6-------|
E|7---------/-11----------9-------------------------------|

G|----------------------------------------------------------------|
D|----------------6---6---6---6---8---8---8---8---9---9---9---9---|
A|7---7---7---7---------------------------------------------------|
E|----------------------------------------------------------------|

G|----------------------------------------------------------------|
D|----------------------------------------------------------------|
A|----------------------------------/-14--14--14--14--14----------|
E|9---9---9---9---9---9---9---9---9-------------------------------|

2:30

G|--------------------------------------------------------|
D|--------------------------------------------------------|
A|--------------------------------------------------------|
E|7---------/-11----------9-------9-------9-------9-------|

G|--------------------------------------------------------|
D|--------------------------------------------------------|
A|----------------------------------------6-------6-------|
E|7---------/-11----------9---9---9---9-------------------|

G|----------------------------------------------------------------|
D|----------------------------------------------------------------|
A|7---7---7---7---7---7---7---7---7---7---7-------7---7---7---7---|
E|--------------------------------------------7-------------------|

G|----------------------------------------------------------------|
D|----------------------------------------------------------------|
A|----------------------------------------------------------------|
E|9---9---9---9---9---9---9---9---9---9---9---9---9---9---9-------|

2:45

G|--------------------------------------------------------|
D|--------------------------------------------------------|
A|--------------------------------------------------------|
E|7---------/-11----------9-------9-------9-------9-------|

G|--------------------------------------------------------|
D|--------------------------------------------------------|
A|----------------------------------------6-------6-------|
E|7---------/-11----------9-------9-----------------------|

G|----------------------------------------------------------------|
D|----------------------------------------------------------------|
A|7---7---7---7---7---7---7---7---7---7---7-------7---7---7---7---|
E|--------------------------------------------7-------------------|

G|----------------------------------------------------------------|
D|----------------------------------------------------------------|
A|--------------------------------------------7---7---7---7-------|
E|9---9---9---9---9---9---9---9---9---9---9-----------------------|

2:58

G|--------------------------------------------------------|
D|--------------------------------------------------------|
A|--------------------------------------------------------|
E|7---------/-11----------9-------9-------9-------9-------|

G|--------------------------------------------------------|
D|--------------------------------------------------------|
A|----------------------------------------6-------6-------|
E|7---------/-11----------9-------9-----------------------|

G|----------------------------------------------------------------|
D|----------------6---6---6---6---8---8---8---8---9---9---9---9---|
A|7---7---7---7---------------------------------------------------|
E|----------------------------------------------------------------|

G|----------------------------------------------------------------|
D|----------------------------------------------------------------|
A|--------------------------------------/-14------14------14------|
E|9---9---9---9---9---9---9---9---9---9---------------------------|

3:12

G|--------------------------------------------------------|
D|--------------------------------------------------------|
A|--------------------------------------------------------|
E|7---------/-11----------9-------9-------9-------9-------|

G|--------------------------------------------------------|
D|--------------------------------------------------------|
A|----------------------------------------6---6---6---6---|
E|7---------/-11----------9---9---9---9-------------------|

G|----------------------------------------------------------------|
D|----------------6---6---6---6---8---8---8---8---9---9---9---9---|
A|7---7---7---7---------------------------------------------------|
E|----------------------------------------------------------------|

G|----------------------------------------------------------------|
D|------------------------------------9-------9---11----/-11------|
A|----------------------------------------------------------------|
E|9---9---9---9---9---9---9---9---9-------------------------------|

G|--------------------------------------------------------|
D|--------------------------------------------------------| fades out here.
A|--------------------------------------------------------|
E|7---------/-11----------9-------9-------9-------9-------|

            
            
Suggest correction
Creating personal tab
Creating personal tab
You can edit any tab online and save it as your Personal.

You can edit, replace or remove any tab part or add personal notes – all changes will be seen only by you.

Personal tabs can be accessed anytime from any device, even offline.
Learn more »
Give kudos to tab author, rate the tab!
1 2 3 4 5
comments
print report bad tab
guest
You may want to rate the tab now too:
select rating
Wanna post a correction for this tab? Suggest correction