Oops, an error
Loading. Please wait.

Creer Tab

by Golem
14 views 1 this week
no commentswrite comment
1 2 3 4 5
3 more votes to show rating
add to favorites
launch autoscroll
font size
0
reset
how to read this tab
guitar tuner
×
Best way to learn
"Creer"
Autoscroll
slow
fast
+/-
esc
set tempo
stop
Hola. Este tema de Golem (Creer) es muy bueno y aquí está!

En este tema a la guitarra se le pone un cejillo en el 4° espacio
que le da el sonido original al tema. 

Se hace un ReM en el 6° espacio (por que como ya dije se le 
pone un cejillo en el 4° espacio) y se hace el siguente arpegio.
Y los N° de la tab. los estoy contando como si estubiera del 1°
espacio. Explicando mejor, después de que puse el cejillo en el
4° espacio, el siguente espacio seria el 1°. (jajajaj me entienden)


Intro: 

E|-------2---------------||
B|---3-----3--------3----||
G|--2--2----0----0----0--||
D|-0------------4-4--4-4-||Dos veces
A|------------2----------||
e|-----------------------||


Verso:


  creer, siempre está de más
E|-------2---------------||
B|---3-----3--------3----||
G|--2--2----0----0----0--||(ustedes le ven el tiempo)
D|-0------------4-4--4-4-||   
A|------------2----------||
e|-----------------------||


  Ya no hay ni un lugar
E|-------2---------------||
B|---3-----3--------3----||
G|--2--2----0----0----0--||
D|-0------------4-4--4-4-||   
A|------------2----------||
e|-----------------------||

       
  Para queeedaaar
E|-------------------------2---||
B|---3-------3---------3-----3-|| 
G|--2--2-------2----0----4-----||
D|-0-------0-------4-4---------||
A|-------4-------2-------------||
e|-----------------------------||


  Y disolver
E|-------------------------------||
B|---3-------3---------3-----3-3-|| 
G|--2--2-------2----0------------||
D|-0-------0-------4-4---4-------||
A|-------4-------2---------------||
e|-------------------------------||


Intro: X2

E|-------2---------------||
B|---3-----3--------3----||
G|--2--2----0----0----0--||
D|-0------------4-4--4-4-||
A|------------2----------||
e|-----------------------||


  ver
E|-------2---------------||
B|---3-----3--------3----||
G|--2--2----0----0----0--||
D|-0------------4-4--4-4-||
A|------------2----------||
e|-----------------------||


  Sientate a llorar
E|-------2---------------||
B|---3-----3--------3----||
G|--2--2----0----0----0--||
D|-0------------4-4--4-4-||
A|------------2----------||
e|-----------------------||


  Ya no hay nada más
E|-------2---------------||
B|---3-----3--------3----||
G|--2--2----0----0----0--||
D|-0------------4-4--4-4-||
A|------------2----------||
e|-----------------------||


  Para entregar
E|-------------------------2---||
B|---3-------3---------3-----3-|| 
G|--2--2-------2----0----4-----||
D|-0-------0-------4-4---------||
A|-------4-------2-------------||
e|-----------------------------||


  Para saltar
E|-------------------------------||
B|---3-------3---------3-----3-3-|| 
G|--2--2-------2----0------------||
D|-0-------0-------4-4---4-------||
A|-------4-------2---------------||
e|-------------------------------||


Intro: X2


creer, siempre está de más
E|-------2---------------||
B|---3-----3--------3----||
G|--2--2----0----0----0--||
D|-0------------4-4--4-4-||   
A|------------2----------||
e|-----------------------||


  Ya no hay ni un lugar
E|-------2---------------||
B|---3-----3--------3----||
G|--2--2----0----0----0--||
D|-0------------4-4--4-4-||   
A|------------2----------||
e|-----------------------||


  Para entregar
E|-------------------------2---||
B|---3-------3---------3-----3-|| 
G|--2--2-------2----0----4-----||
D|-0-------0-------4-4---------||
A|-------4-------2-------------||
e|-----------------------------||

                                F#
  Para salvaaaar      aahhh  uhhuhhuh
E|---------------------|----X------||
B|---3-------3---------|----3------||(aqui empieza la parte rasgueada.
G|--2--2-------2----0--|----0------||Este acorde no le conosco su nombre
D|-0-------0-------4-4-|----4------||pero es este: X (no se toca esa cuerda)
A|-------4-------2-----|----5------||              3
e|---------------------|----5------|| 
                                                   4 
                                                   5
                                                   5


Acorde X   F#     Acorde X (todavia estamos con el cejillo puesto ne el 4° espacio
Uhh uh uh uhhh uh uh  (4 veces estoy suponiendo que son)

F#              acorde X
Siempre esta de más
FA#                 Acorde X
Ya no hay ni un lugar
         F#
Para saltar
Acorde X   F#
Para entregar

F#              acorde X
Siempre esta de más
FA#                 Acorde X
Ya no hay ni un lugar
           F#
Para entregar
Acorde X  F#    Acorde X
Para salvar


E|-------2---------------||
B|---3-----3--------3----||
G|--2--2----0----0----0--||
D|-0------------4-4--4-4-||   
A|------------2----------||
e|-----------------------||


  Ya no hay ni un lugar      D Rasgueado [final] 
E|-------2-------------2-----2---|
B|---3-----3--------3----3---3---|
G|--2--2----0----0-----------2---| 
D|-0------------4-4--4-------0---|   
A|------------2--------------X---|
e|---------------------------X---|

             Fin

Acordes y posturas usadas. (Puestas como si estubieran sin el cejillo)

   D                          F#  
  
E|-2-|   E|-2-|   E|-2-|   E|-2-|   E|-X-|  
B|-3-|   B|-3-|   B|-3-|   B|-2-|   B|-3-|
G|-2-|   G|-0-|   G|-2-|   G|-3-|   G|-0-|
D|-0-|   D|-4-|   D|-0-|   D|-4-|   D|-4-|
A|-0-|   A|-2-|   A|-4-|   A|-4-|   A|-5-|
e|-0-|   e|-0-|   e|-0-|   e|-2-|   e|-5-|
          
Bueno, aquí está el tema creer de Golem y está a un 100% bueno, y 
además está super fácil aprenderselo.
Suggest correction
Give kudos to tab author, rate the tab!
1 2 3 4 5
comments
print report bad tab
guest
You may want to rate the tab now too:
select rating
Wanna post a correction for this tab? Suggest correction