Oops, an error
Loading. Please wait.

Horizontes Tab

by Golem
24 views 3 this week
no commentswrite comment
1 2 3 4 5
3 more votes to show rating
add to favorites
launch autoscroll
font size
0
reset
how to read this tab
guitar tuner
×
Best way to learn
"Horizontes"
Autoscroll
slow
fast
+/-
esc
set tempo
stop
Intro/Verso :

  TECLADO
E-------------------------------|------------------------
B---11--11--11--11--11----9--7--|--9--11--7----6---------
G-8-----------------------------|---------------------6--
D-------------------------------|------------------------
A-------------------------------|------------------------
E-------------------------------|------------------------

 -------------------------|------------------------||
 --9--9--9--9--9----7--6--|--7--9--6----4----------||
 -------------------------|------------------------||
 -------------------------|------------------------||
 -------------------------|------------------------||
 -------------------------|------------------------||
  Detrás quedo la infancia que nunca tuve
  Debajo de la estatua de mis virtudes
  Ya no puedo mirar más allá del tiempo
  La puerta se cerró y con migo dentro

  Pre-Coro :

  SI5     SOL#5
        Atrapado dentro
  DO#5                  SI5
|--------------------|-------------------
|--------------7--6--|--7--9--6--7--4----
|--------------------|-------------------<--Teclado
|--------------------|-------------------
|--------------------|-------------------
|--------------------|-------------------

  Verso :
  RE#                  SI
  Aprende a no juzgar lo que no comprendes
  DO#                  LA#
  Y no seguir los pasos de un  inocente
  RE#                  SI
  A no desesperar si no me respondes
  DO#                  LA#
  Detrás de mis paredes hay horizontes

  Pre-Coro :
  SI5     SOL#5
      Miles de horizontes
|--------------------------|-------------------------
|--7--------7--------7-----|--4--------4--------4----
|-----8--------8--------8--|-----4--------4--------4-
|--------9--------9--------|--------6--------6-------
|--------------------------|-------------------------
|--------------------------|-------------------------
  DO#5       SI5
      miles de horizontes
|--------------------------|-------------------------
|--9--------9--------9-----|--7--------7--------7----
|----10--------10------10--|-----8--------8--------8-
|-------11-------11--------|--------9--------9-------
|--------------------------|-------------------------
|--------------------------|-------------------------

   Coro :
 DO#m         FA#    SOL#m        MI
    Que espere   donde nadie me ve

 DO#m                       FA#
|--------------------------|--------------------------|
|--5-----------5-----------|--7-----------7-----------|
|-----6-----6-----6-----6--|-----6-----6-----6-----6--|
|--------6-----------6-----|--------8-----------8-----|
|--------------------------|--------------------------|
|--------------------------|--------------------------|

 SOL#m                       MI
|--------------------------|--------------------------|
|--4--------4--------4-----|--5--------5--------5-----|
|-----4--------4--------4--|-----4--------4--------4--|
|--------6--------6--------|--------6--------6--------|
|--------------------------|--------------------------|
|--------------------------|--------------------------|

 Teclado:
|---------------|------------------------|--------------------|
|-17----16--14--|----------11----12--16--|---14----12------9--|
|---------------|------------------------|--------------------|
|---------------|------------------------|--------------------|
|---------------|------------------------|--------------------|
|---------------|------------------------|--------------------|

 DO#m         FA#    SI            MI
    Que busque, para  hacerme crecer

DO#m                       FA#
|--------------------------|--------------------------|
|--5-----------5-----------|--7-----------7-----------|
|-----6-----6-----6-----6--|-----6-----6-----6-----6--|
|--------6-----------6-----|--------8-----------8-----|
|--------------------------|--------------------------|
|--------------------------|--------------------------|

 SI                         MI
|--------------------------|--------------------------|
|--7--------7--------7-----|--5--------5--------5-----|
|-----8--------8--------8--|-----4--------4--------4--|
|--------9--------9--------|--------6--------6--------|
|--------------------------|--------------------------|
|--------------------------|--------------------------|

Teclado:
|--------------|---------------------|-------------------
|17----16--14--|-------11----12--19--|---17----16------9-
|--------------|---------------------|-------------------
|--------------|---------------------|-------------------
|--------------|---------------------|-------------------
|--------------|---------------------|-------------------

  Verso :

  Veras que no es difícil resucitarme
  Tan solo la esperanza puede sanarme
  No voy a disparar si de mi te escondes
  Detrás de mis paredes hay horizontes

  Pre-Coro :

  Miles de horizontes, miles de horizontes

  Coro :

  Que espere, donde nadie me ve
  Que busque, para  hacerme crecer      X2

  Intermedio :
 RE#
|-------------------------|
|-----6--------7----------|
|--------8--------8-------|    X2
|--8--------8--------8----|
|-------------------------|
|-------------------------|
 SI
|--------------6----------|
|-----7-----------7-------|
|--------8-----------8----|    X2
|--8--------8-------------|
|-------------------------|
|-------------------------|

 SOL#
|----------------------------|
|------11----------12--------|
|----------13----------13----|  X2
|--13----------13---------13-|
|----------------------------|
|----------------------------|

                                    RE#
|----------------------------------|---------------------------------
|------11----------11----------11--|----------11----------11---------
|----------13----------13----------|--13----------13----------13-----
|--13----------13----------13------|------13----------13----------13-
|----------------------------------|---------------------------------
|----------------------------------|---------------------------------
RE#             SI
Hay un color de verdad muy dentro
SOL#                     RE#
Hay un color de verdad muy dentro


  Coro X2


 Gran cancion de esta gran banda chilena de su nuevo
 disco llamado Pausa que esta demasiado bueno,
 el otro dia los vi en el inba y aunque
 tocaron poco estuvo genial,aparte ellos
 fueron muy simpaticos y me dieron un autografo
 mientras veian a lucybell.
Suggest correction
Give kudos to tab author, rate the tab!
1 2 3 4 5
comments
print report bad tab
guest
You may want to rate the tab now too:
select rating
Wanna post a correction for this tab? Suggest correction