Oops, an error
Loading. Please wait.

Ocean Floor Tab

171 views 3 this week
no commentswrite comment
1 2 3 4 5
please rate
add to favorites
launch autoscroll
font size
0
reset
how to read this tab
guitar tuner
Autoscroll
slow
fast
+/-
esc
set tempo
stop
Help us to improve Ultimate-Guitar.com Take our survey!
×
Difficulty
novice
Hey, this is a song by Goliath And The Giants from their second album 'Done Deed'.
My first tab however so sorry if it's messy.
I'm sure you can figure out the rhythm for yourself.
Any comments appreciated


Intro/Vers:
e|-------------------------------------------------------------------------------|
B|------0------0------0------0------0------0------0------0-----------------------|
G|------1------1------1------1------2------2------2------2-----------------------|
D|------2------2------2------2------2------2------2------2-----------------------| x10
A|------2------2------2------2------0------0------0------0-----------------------|
E|--0-0---0--0---0--0---0--0---0--2---2--2---2--2---2--2-------------------------|


Chorus:
e|--0----0----9----0-------------------------------------------------------------|
B|--0----0----9----0-------------------------------------------------------------|
G|--9----8----9----8-------------------------------------------------------------|
D|--9----9----9----9-------------------------------------------------------------| 
A|--7----9----11---9-------------------------------------------------------------|
E|--0----7----9----7-------------------------------------------------------------|


Vers 2:
e|------7-------7-------7-------7------------------------------------------------|
B|------7-------7-------7-------7-------9-------9-------9-------9----------------|
G|------9-------9-------9-------9-------9-------9-------9-------9----------------|
D|--9-9-9-9-9-9-9-9-9-9-9-9-9-9-9-9-7-7-7-7-7-7-7-7-7-7-7-7-7-7-7-7--------------| x3
A|--7-7-7-7-7-7-7-7-7-7-7-7-7-7-7-7-9-9-9-9-9-9-9-9-9-9-9-9-9-9-9-9--------------|
E|-------------------------------------------------------------------------------|


e|--------9-----------9-----------9-----------9---------7-------7-------7--------|
B|--------9-----------9-----------9-----------9---------7-------7-------7--------|
G|--------9-----------9-----------9-----------9---------8-------8-------8--------|
D|--------9-----------9-----------9-----------9---------9-------9-------9--------| 
A|--11-11-11-11-11-11-11-11-11-11-11-11-11-11-11-11-9-9-9-9-9-9-9-9-9-9-9--------|
E|--9--9--9--9--9--9--9--9--9--9--9--9--9--9--9--9--7-7-7-7-7-7-7-7-7-7-7--------|


Chorus:
e|--0----0----9----0-------------------------------------------------------------|
B|--0----0----9----0-------------------------------------------------------------|
G|--9----8----9----8-------------------------------------------------------------|
D|--9----9----9----9-------------------------------------------------------------| x2
A|--7----9----11---9-------------------------------------------------------------|
E|--0----7----9----7-------------------------------------------------------------|


Bridge:
e|------7-------7-------7-------7-------7-------7-------7-------7----------------|
B|------7-------7-------7-------7-------7-------7-------7-------7----------------|
G|------9-------9-------9-------9-------8-------8-------8-------8----------------|
D|--9-9-9-9-9-9-9-9-9-9-9-9-9-9-9-9-----9-------9-------9-------9----------------| 
A|--7-7-7-7-7-7-7-7-7-7-7-7-7-7-7-7-9-9-9-9-9-9-9-9-9-9-9-9-9-9-9-9--------------|
E|----------------------------------7-7-7-7-7-7-7-7-7-7-7-7-7-7-7-7--------------|


e|--------9-----------9-----------9-----------9---------7-------7-------7--------|
B|--------9-----------9-----------9-----------9---------7-------7-------7--------|
G|--------9-----------9-----------9-----------9---------8-------8-------8--------|
D|--------9-----------9-----------9-----------9---------9-------9-------9--------| x2
A|--11-11-11-11-11-11-11-11-11-11-11-11-11-11-11-11-9-9-9-9-9-9-9-9-9-9-9--------|
E|--9--9--9--9--9--9--9--9--9--9--9--9--9--9--9--9--7-7-7-7-7-7-7-7-7-7-7--------|


e|--9---9--9--9----7---7--7--7----5---5---5---5---5---5---5---5------------------|
B|--9---9--9--9----7---7--7--7----5---5---5---5---5---5---5---5------------------|
G|--9---9--9--9----8---8--8--8----6---6---6---6---6---6---6---6------------------|
D|--9---9--9--9----9---9--9--9----7---7---7---7---7---7---7---7------------------| 
A|--11--11-11-11---9---9--9--9----7---7---7---7---7---7---7---7------------------|
E|--9---9--9--9----7---7--7--7----5---5---5---5---5---5---5---5------------------|


Outro: 
e|--------9-----------9-----------9-----------9---------7-------7-------7--------|
B|--------9-----------9-----------9-----------9---------7-------7-------7--------|
G|--------9-----------9-----------9-----------9---------8-------8-------8--------|
D|--------9-----------9-----------9-----------9---------9-------9-------9--------| x2
A|--11-11-11-11-11-11-11-11-11-11-11-11-11-11-11-11-9-9-9-9-9-9-9-9-9-9-9--------|
E|--9--9--9--9--9--9--9--9--9--9--9--9--9--9--9--9--7-7-7-7-7-7-7-7-7-7-7--------|


That's it!
Hope you enjoy!
/Kevin


www.goliathandthegiants.com
www.facebook.com/GoliathandtheGiants
Suggest correction
Give kudos to tab author, rate the tab!
1 2 3 4 5
comments
print report bad tab
guest
You may want to rate the tab now too:
select rating
Wanna post a correction for this tab? Suggest correction