Oops, an error
Loading. Please wait.

Estar Enamorado Tab

122 views 1 this week
no commentswrite comment
1 2 3 4 5
3 more votes to show rating
add to favorites
launch autoscroll
font size
0
reset
how to read this tab
guitar tuner
×
Best way to learn
"Estar Enamorado"
Autoscroll
slow
fast
+/-
esc
set tempo
stop
Los acordes ya están, así que, para qué...
ESTA ES UNA VERSIÓN SENCILLA PARA GUITARRA
¡ESPERO QUE SEA DE SU AGARDO!
**********************************************************************
INTRO:
  F#
e|---------------------------------|
B|-------2-------2-------2-------2-|
G|-----3-------3-------3-------3---|
D|---4-------4-------4-------4-----|
A|-4-------4-------4-------4-------|
E|---------------------------------|
   G#
e|---------------------------------|
B|-------4-------4-------4-------4-|
G|-----5-------5-------5-------5---|
D|---6-------6-------6-------6-----|
A|-6-------6-------6-------6-------|
E|---------------------------------|
   Fm
e|---------------------------------|
B|-------1-------1-------1-------1-|
G|-----1-------1-------1-------1---|
D|---3-------3-------3-------3-----|
A|-3-------3-------3-------3-------|
E|---------------------------------|
   A#m
e|---------------------------------|
B|-------2-------2-------2-------2-|
G|-----3-------3-------3-------3---|
D|---3-------3-------3-------3-----|
A|-1-------1-------1-------1-------|
E|---------------------------------|
**********************************************************************
ESTROFAS:
25 horas al dia,8 días a la semana,
e |-----2----------------------------|
B |---2---2-2-4-1-1--1-1-1-1-1-1-1---|
G |-3------------------------------1-|

Despertar por la mañana y buscarte bajo mi almohada
e|------------------------------1-------|
B|-1-1-1-1-1-1-2-1----1-2-1-2-4---4-s-2-|
G|------------------3-------------------|

Y es que no me alcanza el tiempo pa? expresarte lo que siento
e|--------------------------------------|
B|-2-s-6-4-2-2-2-4-1-1--1-1-1-1-1-1-1---|
G|------------------------------------1-|

Seguro se lo lleva el viento porque....
e|---1-----------1--------|
B|-----4-2-2-2-4---4--2-4-|
G|-1----------------------|

Cuando el amor llega así de esa manera
e|------------------------------|
B|-6---6--------2-2-2-2-2-4-1-1-|
G|---8---8-s-3------------------|

Uno no se da ni cuenta, el corazón se revienta
e|----------------------------------|
B|-1-1-1-1-1-1-1------1-1-1-1-1-2-1-|
G|---------------1--1---------------|

y está de fiesta, sabes...
e|------------------|
B|---1-2-1--6-------|
G|-3----------8-s-3-|
**********************************************************************
ESTRIBILLO:
Estar enamorado es? bailar junticos bajo la lluvia
e|---1----------------------------------|
B|-2---4-2-2-2-4-1--1-1-1-1-1-1-1-1-1---|
G|------------------------------------1-|

Estar enamorado es(...) pegarle mordiscos a la luna
e|---1--------------------------------1-------|
B|-----4-2-2-2-4-s-2--2-2-2-2-2-2-2-4---4-s-2-|
G|-1------------------------------------------|

Estar enamorado es(?), tal vez, lo que siento
e|---1-1-1-1-1-2-------------------------------|
B|-2-------------6-(s-4-s-2)--6----------2-1-2-|
G|------------------------------8-s-3--3-------|

**********************************************************************
(Pequeño Juan)
Si no me das un pico
Lloro como Kiko
Estoy grande, no chico.
Si no me entiendes
Facilito te explico:
No estoy pobre, estoy rico;
Por culpa de tus besos sabor a Tampico
Oye?
Nananananana? lerolerolero? (Chichin¡¡)
Si me das un besito te quiero
Nananananana? lerolerolero? (Aja¡¡)
Si no pues espero

Tú eres mi reina (solo para mí)
Tú eres una diosa (solo para mí)
Tú eres mi princesa (solo para mí)
Sabor a frambuesa...
**********************************************************************
-ESTRIBILLO-
**********************************************************************
(Pequeño Juan)
No vale la pena
Un besito a penas
Cuando de tu boca
Quiero besos por docenas.
Si no me das ni uno
Quedo como un alma en pena
Tú eres mi nena
MI nena MI nena

Juntitos los dos
Alalalalalong
Haciendo el amor
Alalalalalong
Es lo que quiero yo
Alalalalalong
Lo juro por dios (bis)
(Aja¡¡)

Mr. Dec (Pequeño Juan)
Tú eres mi reina (solo para mí)
Tú eres una diosa (solo para mí)
Tú eres mi princesa (solo para mí)
Sabor a frambuesa

(Más lunáticos)
**********************************************************************
-ESTROFAS-
**********************************************************************
BLA BLA BLA:
Estar enamorado es?  (Golpe a golpe? golpe a golpe) ou noo
Estar enamorado es? baby (Más lunáticos? más lunáticos)
Oye?
Pequeño Juan y Mr. Dec
Pequeño Juan y Mr. Dec
Alexander DJ (DDDJ)
Palma productions?
Más lunáticos?
(Ahora sabes por qué? me tienes en la luna)
Palma productions
Suggest correction
Give kudos to tab author, rate the tab!
1 2 3 4 5
comments
print report bad tab
guest
You may want to rate the tab now too:
select rating
Wanna post a correction for this tab? Suggest correction