Oops, an error
Loading. Please wait.

Just As Lost As You tab

by Gomez
10 views 1 this week
no commentswrite comment
1 2 3 4 5
2 more votes to show rating
add to favorites
×
Save as Personal and add changes to this tab that will be seen only by you. Learn more ›
×
You can save this tab as Personal to edit and correct it or add notes. All changes will be seen only by you. Learn more »
launch autoscroll
font size
0
reset
how to read this tab
guitar tuner
edit
Autoscroll
slow
fast
+/-
esc
set tempo
stop
About this tab version
This is as accurate as I could tab the three guitars, and tried to sync them as best as I could. The timing might be a little hard to get, but listening closely and with the written tab, it's much easier. Was this info helpful? Yes No
Okay, so this is Just As Lost As You by Gomez, it's played on a Drop D tuning, but you can also play it
acoustic on a standard tuning staying on D and changing the bass note.
It's a really simple song, it's based mainly on the repetition of a same pattern throughout the verse
and the chorus:

[Intro]
e|------------------|----------------|-----------------|------------------|
B|------------------|----------------|-----------------|------------------|
G|------------------|----------------|-----------------|------------------|
D|------------------|----------------|-----------------|------------------| (x2)
A|-------5-------5--|-----5-------5--|-----5--------5--|----5--------5----|
D|--0-------0--0----|--0----0---0----|--4-----4--4-----|--5-----5--5------|

[Verse]
e|------------------|----------------|-----------------|------------------|
B|------------------|----------------|-----------------|------------------|
G|------------------|----------------|-----------------|------------------|
D|------------------|----------------|-----------------|------------------| (x2)
A|-------5-------5--|-----5-------5--|-----5--------5--|----5--------5----|
D|--0-------0--0----|--0----0---0----|--4-----4--4-----|--5-----5--5------|

[Pre-Chorus]
"I'm                          just as lost               as..."
e|-----------------|-----------------|-----------------|------------------|
B|-----------------|-----------------|-----------------|------------------|
G|-----------------|-----------------|-----------------|------------------|
D|-7-7-7-7-7-7-7-7-|-7-7-7-7-7-7-7-7-|-9-9-9-9-9-9-9-9-|-5-5-5-5-5-5-5-5--|
A|-7-7-7-7-7-7-7-7-|-7-7-7-7-7-7-7-7-|-9-9-9-9-9-9-9-9-|-5-5-5-5-5-5-5-5--|
D|-7-7-7-7-7-7-7-7-|-7-7-7-7-7-7-7-7-|-9-9-9-9-9-9-9-9-|-5-5-5-5-5-5-5-5--|

[Chorus]
e|------------------|----------------|-----------------|------------------|
B|------------------|----------------|-----------------|------------------|
G|------------------|----------------|-----------------|------------------|
D|------------------|----------------|-----------------|------------------|
A|-------5-------5--|-----5-------5--|-----5--------5--|----5--------5----|
D|--0-------0--0----|--0----0---0----|--4-----4--4-----|--5-----5--5------|

[Bridge]
(Guitar 1)
e|------------------|----------------|-----------------|------------------|
B|------------------|----------------|-----------------|------------------|
G|------------------|----------------|-----------------|------------------|
D|------------------|----------------|-----------------|------------------| (x2)
A|-------5-------5--|-----5-------5--|-----5--------5--|----5--------5----|
D|--0-------0--0----|--0----0---0----|--4-----4--4-----|--5-----5--5------|

(Guitar 2)
e|--2-------0-------|----------------|-----------------|--------------------|
B|------------------|--3--------0----|-----------------|--------------------|
G|------------------|----------------|--2--------------|--------------------|
D|------------------|----------------|-----------4-----|--4\2-2-------0-----| (x2)
A|------------------|----------------|-----------------|--------------------|
D|------------------|----------------|-----------------|--------------------|

[Verse]
(Guitar 1)
e|------------------|----------------|-----------------|------------------|
B|------------------|----------------|-----------------|------------------|
G|------------------|----------------|-----------------|------------------|
D|------------------|----------------|-----------------|------------------| (x2)
A|-------5-------5--|-----5-------5--|-----5--------5--|----5--------5----|
D|--0-------0--0----|--0----0---0----|--4-----4--4-----|--5-----5--5------|

(Guitar 2)
e|------------------|----------------|-----------------|-----3-3-3-3-2----|
B|------------------|----------------|-----------------|-----3-3-3-3-3----|
G|------------------|----------------|-----------------|------------------|
D|------------------|----------------|-----------------|------------------| (x4)
A|------------------|----------------|-----------------|------------------|
D|------------------|----------------|-----------------|------------------|

[Pre-Chorus]
"I'm                          just as lost               as..."
e|-----------------|-----------------|-----------------|------------------|
B|-----------------|-----------------|-----------------|------------------|
G|-----------------|-----------------|-----------------|------------------|
D|-7-7-7-7-7-7-7-7-|-7-7-7-7-7-7-7-7-|-9-9-9-9-9-9-9-9-|-5-5-5-5-5-5-5-5--|
A|-7-7-7-7-7-7-7-7-|-7-7-7-7-7-7-7-7-|-9-9-9-9-9-9-9-9-|-5-5-5-5-5-5-5-5--|
D|-7-7-7-7-7-7-7-7-|-7-7-7-7-7-7-7-7-|-9-9-9-9-9-9-9-9-|-5-5-5-5-5-5-5-5--|

[Chorus]
(Guitar 1)
e|------------------|----------------|-----------------|------------------|
B|------------------|----------------|-----------------|------------------|
G|------------------|----------------|-----------------|------------------|
D|------------------|----------------|-----------------|------------------| (x2)
A|-------5-------5--|-----5-------5--|-----5--------5--|----5--------5----|
D|--0-------0--0----|--0----0---0----|--4-----4--4-----|--5-----5--5------|

(Guitar 2)
e|------------------|----------------|-----------------|------------------|
B|------------------|----------------|-----------------|------------------|
G|--7-7--9-9-11-11--|-7-7--9-9-11-11-|-6-6--7-7-9-9----|-7-7--9-9-11-11---|
D|------------------|----------------|-----------------|------------------| (x2)
A|--5-5--7-7-9--9---|-5-5--7-7-9--9--|-4-4--5-5-7-7----|-5-5--7-7-9--9----|
D|------------------|----------------|-----------------|------------------|

(Guitar 3)
e|----------10---------10---------10---------10---------10-------------------|
B|--10--10-----10--10-----10--10-----10--10-----10--10-----------------------|
G|---------------------------------------------------------------------------|
D|---------------------------------------------------------------------------| (x4) (2 bars for each one 
A|---------------------------------------------------------------------------|    of the other guitars)
D|---------------------------------------------------------------------------|

[Bridge]
(Guitar 1)
e|------------------|----------------|-----------------|------------------|
B|------------------|----------------|-----------------|------------------|
G|------------------|----------------|-----------------|------------------|
D|------------------|----------------|-----------------|------------------| (x2)
A|-------5-------5--|-----5-------5--|-----5--------5--|----5--------5----|
D|--0-------0--0----|--0----0---0----|--4-----4--4-----|--5-----5--5------|

(Guitar 2)
e|------------------|----------------|-----------------|------------------|
B|--7-7-7-7-5-5-5---|--7-7-7-7-5-5-5-|--7-7-7-7-5-5-5--|-7-7-7-7-5-5-5----|
G|--7-7-7-7-7-7-7---|--7-7-7-7-7-7-7-|--7-7-7-7-7-7-7--|-7-7-7-7-7-7-7----|
D|------------------|----------------|-----------------|------------------| (x2)
A|------------------|----------------|-----------------|------------------|
D|------------------|----------------|-----------------|------------------|

(Guitar 3)
e|----------10---------10---------10---------10---------10-------------------|
B|--10--10-----10--10-----10--10-----10--10-----10--10-----------------------|
G|---------------------------------------------------------------------------|
D|---------------------------------------------------------------------------| (x4) (2 bars for each one 
A|---------------------------------------------------------------------------|    of the other guitars)
D|---------------------------------------------------------------------------|

[Pre-Chorus]
"I'm                          just as lost               as..."
e|-----------------|-----------------|-----------------|------------------|
B|-----------------|-----------------|-----------------|------------------|
G|-----------------|-----------------|-----------------|------------------|
D|-7-7-7-7-7-7-7-7-|-7-7-7-7-7-7-7-7-|-9-9-9-9-9-9-9-9-|-5-5-5-5-5-5-5-5--| (x2)
A|-7-7-7-7-7-7-7-7-|-7-7-7-7-7-7-7-7-|-9-9-9-9-9-9-9-9-|-5-5-5-5-5-5-5-5--|
D|-7-7-7-7-7-7-7-7-|-7-7-7-7-7-7-7-7-|-9-9-9-9-9-9-9-9-|-5-5-5-5-5-5-5-5--|

[Chorus]
e|------------------|----------------|-----------------|------------------|
B|------------------|----------------|-----------------|------------------|
G|------------------|----------------|-----------------|------------------|
D|------------------|----------------|-----------------|------------------| (x2)
A|-------5-------5--|-----5-------5--|-----5--------5--|----5--------5----|
D|--0-------0--0----|--0----0---0----|--4-----4--4-----|--5-----5--5------|

(Guitar 2)
e|------------------|----------------|-----------------|------------------|
B|------------------|----------------|-----------------|------------------|
G|--7-7--9-9-11-11--|-7-7--9-9-11-11-|-6-6--7-7-9-9----|-7-7--9-9-11-11---|
D|------------------|----------------|-----------------|------------------| (x2)
A|--5-5--7-7-9--9---|-5-5--7-7-9--9--|-4-4--5-5-7-7----|-5-5--7-7-9--9----|
D|------------------|----------------|-----------------|------------------|

(Guitar 3)
e|----------10---------10---------10---------10---------10-------------------|
B|--10--10-----10--10-----10--10-----10--10-----10--10-----------------------|
G|---------------------------------------------------------------------------|
D|---------------------------------------------------------------------------| (x4) (2 bars for each one 
A|---------------------------------------------------------------------------|    of the other guitars)
D|---------------------------------------------------------------------------|

(On the 3rd repetition, the second guitar changes to the bridge pattern, 1 remains the same
and guitar 3 changes to the first bridge piano melody:)

(Guitar 1)
e|------------------|----------------|-----------------|------------------|
B|------------------|----------------|-----------------|------------------|
G|------------------|----------------|-----------------|------------------|
D|------------------|----------------|-----------------|------------------|
A|-------5-------5--|-----5-------5--|-----5--------5--|----5--------5----|
D|--0-------0--0----|--0----0---0----|--4-----4--4-----|--5-----5--5------|

(Guitar 2)
e|------------------|----------------|-----------------|------------------|
B|--7-7-7-7-5-5-5---|--7-7-7-7-5-5-5-|--7-7-7-7-5-5-5--|-7-7-7-7-5-5-5----|
G|--7-7-7-7-7-7-7---|--7-7-7-7-7-7-7-|--7-7-7-7-7-7-7--|-7-7-7-7-7-7-7----|
D|------------------|----------------|-----------------|------------------|
A|------------------|----------------|-----------------|------------------|
D|------------------|----------------|-----------------|------------------|

(Guitar 3)
e|--2-------0-------|----------------|-----------------|--------------------|
B|------------------|--3--------0----|-----------------|--------------------|
G|------------------|----------------|--2--------------|--------------------|
D|------------------|----------------|-----------4-----|--4\2-2-------0-----|
A|------------------|----------------|-----------------|--------------------|
D|------------------|----------------|-----------------|--------------------|

[Outro]
(Guitar 1)
e|------------------|----------------|-----------------|------------------|
B|------------------|----------------|-----------------|------------------|
G|------------------|----------------|-----------------|------------------|
D|------------------|----------------|-----------------|------------------| 
A|-------5-------5--|-----5-------5--|-----5--------5--|----5-------------|
D|--0-------0--0----|--0----0---0----|--4-----4--4-----|--5-----5--5~~----|

(Guitar 2)
e|------------------|----------------|-----------------|------------------|
B|--7-7-7-7-5-5-5---|--7-7-7-7-5-5-5-|--7-7-7-7-5-5-5--|-7-5-5-5~~~~------|
G|--7-7-7-7-7-7-7---|--7-7-7-7-7-7-7-|--7-7-7-7-7-7-7--|-7-7-7-7~~~~------|
D|------------------|----------------|-----------------|------------------| 
A|------------------|----------------|-----------------|------------------|
D|------------------|----------------|-----------------|------------------|

(Guitar 3)
e|--2-------0-------|----------------|-----------------|--------------------|
B|------------------|--3--------0----|-----------------|--------------------|
G|------------------|----------------|--2--------------|--------------------|
D|------------------|----------------|-----------4-----|--4\2-2-------0-----|
A|------------------|----------------|-----------------|--------------------|
D|------------------|----------------|-----------------|--------------------|


************************************

| \  Slide down
| ~  Vibrato

************************************

            
            
Suggest correction
Creating personal tab
Creating personal tab
You can edit any tab online and save it as your Personal.

You can edit, replace or remove any tab part or add personal notes – all changes will be seen only by you.

Personal tabs can be accessed anytime from any device, even offline.
Learn more »
Give kudos to tab author, rate the tab!
1 2 3 4 5
comments
print report bad tab
guest
You may want to rate the tab now too:
select rating
Wanna post a correction for this tab? Suggest correction