Oops, an error
Loading. Please wait.

Other Plans chords

by Gomez
13 views 1 this week
no commentswrite comment
1 2 3 4 5
3 more votes to show rating
add to favorites
×
Save as Personal and add changes to this tab that will be seen only by you. Learn more ›
×
You can save this tab as Personal to edit and correct it or add notes. All changes will be seen only by you. Learn more »
launch autoscroll
font size
0
reset
transpose
0
reset
display chords
guitar tuner
edit
Autoscroll
slow
fast
+/-
esc
set tempo
stop
About this tab version
I think it's pretty much correct, except for the bridge, especially at the end, where the chords fit but there's much going on so I'm not 100% sure. Also, on the interlude/solo/bridge, the patterns played over Em are a suggestion similar to what is played in the song, but you are free to play whatever patterns you like the most. Also, the "Cm"s on the chorus can also be played as "Cm6"s, Ian Ball likes to use the minor 6th a lot. Was this info helpful? Yes No
Strumming Are these strumming patterns correct? Yes No
Verse/Chorus 168 bpm
1
&
2
&
3
&
4
&
Listen
Interlude/Solo/Bridge 132 bpm
1
&
2
&
3
&
4
&
5
&
6
&
7
&
8
&
Listen
[Intro]
(Guitar 1)
G (x4)

(Guitar 1)
G (x4)

(Guitar 2)
g#|------------------------------|
D#|------------------3---0-------|
 B|-------0------0h4---4----2p0--|  (x4)
F#|---0h4----0h4-----------------|
C#|------------------------------|
G#|-3----------------------------|

[Verse]
C
Doodle your name
                 G (Fig. 1 & Fig. 2)
Into the palm of my hand

(Guitar 2) (Fig. 1)                                  (Guitar 3) (Fig. 2)
g#|------------------------------|                   |-------------------------|-------------------------|
D#|------------------3---0-------|                   |----------0--------------|----------0----------3---|
 B|-------0------0h4---4----2p0--| (x2)              |------0---------0h2------|------0---------0h2------|
F#|---0h4----0h4-----------------|                   |-------------------------|-------------------------|
C#|------------------------------|                   |-------------------------|-------------------------|
G#|-3----------------------------|                   |-------------------------|-------------------------|

C
A name so strange
                G (Fig. 1 $ Fig. 2)
Its hard to let go

(Guitar 2) (Fig. 1)                                  (Guitar 3) (Fig. 2)
g#|------------------------------|                   |-------------------------|-------------------------|
D#|------------------3---0-------|                   |----------0--------------|----------0----------3---|
 B|-------0------0h4---4----2p0--| (x2)              |------0---------0h2------|------0---------0h2------|
F#|---0h4----0h4-----------------|                   |-------------------------|-------------------------|
C#|------------------------------|                   |-------------------------|-------------------------|
G#|-3----------------------------|                   |-------------------------|-------------------------|

        C            (Fig. 3)
I feel summer closing in

(Fig. 3)
g#|--3------3/////6----------|
D#|--5------2/////5----------|
 B|--3------3/////6----------|
F#|--------------------------|
C#|--------------------------|
G#|--------------------------|

[Chorus]
G               C
Its no secret
                 G
You've got other plans

(that don't involve me)
G                 C
I'm dissapointed
                      G
Though I try to understand
D
Why
        C
I understand
Cm
Why

It is

[Instrumental]
(Guitar 1)
G (x4)

(Guitar 2)
g#|------------------------------|
D#|------------------3---0-------|
 B|-------0------0h4---4----2p0--|  (x4)
F#|---0h4----0h4-----------------|
C#|------------------------------|
G#|-3----------------------------|

[Verse]
C
Passing notes and glances
                     G (Fig. 1 & Fig. 2)
Keep your eye on the ball

(Guitar 2)(Fig. 1)                                   (Guitar 3) (Fig. 2)
g#|------------------------------|                   |-------------------------|-------------------------|
D#|------------------3---0-------|                   |----------0--------------|----------0----------3---|
 B|-------0------0h4---4----2p0--|(x2)               |------0---------0h2------|------0---------0h2------|
F#|---0h4----0h4-----------------|                   |-------------------------|-------------------------|
C#|------------------------------|                   |-------------------------|-------------------------|
G#|-3----------------------------|                   |-------------------------|-------------------------|

C                                    G (Fig. 1 & Fig. 2)
But the door you can't wait to walk out

(Guitar 2) (Fig. 1)                                  (Guitar 3) (Fig. 2)
g#|------------------------------|                   |-------------------------|-------------------------|
D#|------------------3---0-------|                   |----------0--------------|----------0----------3---|
 B|-------0------0h4---4----2p0--|(x2)               |------0---------0h2------|------0---------0h2------|
F#|---0h4----0h4-----------------|                   |-------------------------|-------------------------|
C#|------------------------------|                   |-------------------------|-------------------------|
G#|-3----------------------------|                   |-------------------------|-------------------------|

       C                       (Fig. 3)
Im the only one who doesnt wanna leave

(Fig. 3)
g#|--3------3/////6----------|
D#|--5------2/////5----------|
 B|--3------3/////6----------|
F#|--------------------------|
C#|--------------------------|
G#|--------------------------|

[Chorus]
G               C
Its no secret
                        G
I know you've got other plans

(that don't involve me)
G                         C
Just cause he's closer
                       G
I would walk a hundred miles
D
Or more
             C Cm
If you would only

Let me in

[Interlude]
Em (x4) (Fig. 4)

(Guitar 2) (Fig.4)
g#|---0----0---0--0-0------------|---0----0---0--0-0------------|
D#|---0----0---0--0-0--------0---|---0----0---0--0-0--------0---|
 B|---0----0---0--0-0--2-2/4---0-|---0----0---0--0-0----0h2---0-|
F#|---2----2---2--2-2------------|---2----2---2--2-2--2---------|
C#|---2----2---2--2-2------------|---2----2---2--2-2------------|
G#|-0--------0----0-0------------|-0--------0----0-0------------|

g#|---0----0---0--0-0------------|---0----0---0--0-0--------------|
D#|---0----0---0--0-0--------3---|---0----0---0--0-0--3p0---------|
 B|---0----0---0--0-0----2/4---0-|---0----0---0--0-0------2/4\2p0-|
F#|---2----2---2--2-2------------|---2----2---2--2-2--------------|
C#|---2----2---2--2-2------------|---2----2---2--2-2--------------|
G#|-0--------0----0-0------------|-0--------0----0-0--------------|

[Solo]
Em (x4) (Fig. 4)

(Guitar 2) (Fig.4)
g#|---0----0---0--0-0------------|---0----0---0--0-0------------|
D#|---0----0---0--0-0--------0---|---0----0---0--0-0--------0---|
 B|---0----0---0--0-0--2-2/4---0-|---0----0---0--0-0----0h2---0-|
F#|---2----2---2--2-2------------|---2----2---2--2-2--2---------|
C#|---2----2---2--2-2------------|---2----2---2--2-2------------|
G#|-0--------0----0-0------------|-0--------0----0-0------------|

g#|---0----0---0--0-0------------|---0----0---0--0-0--------------|
D#|---0----0---0--0-0--------3---|---0----0---0--0-0--3p0---------|
 B|---0----0---0--0-0----2/4---0-|---0----0---0--0-0------2/4\2p0-|
F#|---2----2---2--2-2------------|---2----2---2--2-2--------------|
C#|---2----2---2--2-2------------|---2----2---2--2-2--------------|
G#|-0--------0----0-0------------|-0--------0----0-0--------------|

[Bridge]
C
Your love....Your love
         Em  (Fig. 4.5)
My love

(Guitar 2) (Fig.4.5)
g#|---0----0---0--0-0------------|---0----0---0--0-0------------|
D#|---0----0---0--0-0--------0---|---0----0---0--0-0--------0---|
 B|---0----0---0--0-0--2-2/4---0-|---0----0---0--0-0----0h2---0-|
F#|---2----2---2--2-2------------|---2----2---2--2-2--2---------|
C#|---2----2---2--2-2------------|---2----2---2--2-2------------|
G#|-0--------0----0-0------------|-0--------0----0-0------------|

C                             Em  (Fig 4.5)
You're love...you're so far away

(Guitar 2) (Fig.4.5)
g#|---0----0---0--0-0------------|---0----0---0--0-0------------|
D#|---0----0---0--0-0--------0---|---0----0---0--0-0--------0---|
 B|---0----0---0--0-0--2-2/4---0-|---0----0---0--0-0----0h2---0-|
F#|---2----2---2--2-2------------|---2----2---2--2-2--2---------|
C#|---2----2---2--2-2------------|---2----2---2--2-2------------|
G#|-0--------0----0-0------------|-0--------0----0-0------------|

C
You're love is so far
C
Summers gone

[Chorus] 
E               A
Its no secret
                        E
I know You've got other plans

(that don't involve me)
E                     A
But I'm not givin up
                     E
I know I still got a chance
B
When
         A Am
We start over
     E
Next year

[Outro]
E (x3)
(Guitar 2)
g#|-------------------------------|
D#|-------------------0-----------|
 B|-----------------1---1-1-------|  (x3)
F#|-----1h2-----1h2---------4-2---|
C#|---2-------2-------------------|
G#|-0-----------------------------|

E


***********************

| /  Slide-up
| \  Slide-down
| h  Hammer-on
| p  Pull-off

***********************

            
            
Suggest correction
Creating personal tab
Creating personal tab
You can edit any tab online and save it as your Personal.

You can edit, replace or remove any tab part or add personal notes – all changes will be seen only by you.

Personal tabs can be accessed anytime from any device, even offline.
Learn more »
Give kudos to tab author, rate the tab!
1 2 3 4 5
comments
print report bad tab
guest
You may want to rate the tab now too:
select rating
Wanna post a correction for this tab? Suggest correction