Oops, an error
Loading. Please wait.

Rosemary tab

version 1
version 1

Whole song

by Gomez
1,113 views 1 this week
1 commentread comment
1 2 3 4 5
2 more votes to show rating
add to favorites
×
Save as Personal and add changes to this tab that will be seen only by you. Learn more ›
×
You can save this tab as Personal to edit and correct it or add notes. All changes will be seen only by you. Learn more »
launch autoscroll
font size
0
reset
how to read this tab
guitar tuner
edit
Autoscroll
slow
fast
+/-
esc
set tempo
stop
Rosemary - Gomez
From "We Haven't Turned Around" CD1
Tabbed by David Thompson.

I've tabbed the intro out until the band joins in, when it becomes difficult
to distinguish what is being played.
This is definitely one of Gomez's strongest tracks, and it really should have
been on Liquid Skin.

Chords Used:

Cm x35543
G  355433
Fm 133111
G# 466544
Gm 355333

Intro

e:----------------|----------------|----------10-11-10-------|----------------|
B:----------------|----------------|-------13----------13----|----------------|
G:-11-12-11-------|-11-12-11-------|-11-12----------------12-|-11-12-11-------|
D:----------13-12-|----------13-12-|-------------------------|----------12-10-|
A:----------------|----------------|-------------------------|----------------|
E:----------------|----------------|-------------------------|----------------|

e:----------------|----------------|-------------------------|----------------|
B:----------13-12-|----------13-12-|-------13-15-16-15-13-13-|----------------|
G:-11-12-11-12-11-|-11-12-11-12-11-|-11-12-12-14-15-14-12-12-|--(Bar rest)----|
D:----------------|----------------|-------------------------|----------------|
A:----------------|----------------|-------------------------|----------------|
E:----------------|----------------|-------------------------|----------------|

e:----------------|
B:-15-16-15-12-13-|
G:-14-15-14-11-12-|
D:----------------|
A:----------------|
E:----------------|

Cm G Cm G Cm G Fm Cm
Cm G Cm G Cm G Fm Cm

Verse 1

Cm             G        Cm                 G
Rosemary's the kind of girl, don't need no reason,
Cm                  G           Fm     Cm
She's the kind that just won't, settle down.
Cm              G       Cm                 G
Rose is out of season, she'll be done for treason,
Cm                 G            Fm     Cm
She'll be hanging from a tree, upside-down.

Bridge 1

Cm     G#      G                 Fm
Fever, fever, were you trying to run,
Cm     G#      G             Fm   Gm
Fever, fever, Rosemary's not do - ne.

Cm G Cm G Cm G Fm Cm

Verse 2

Cm                  G         Cm               G
Well Rosemary's the kind of, girl tired of her beauty,
Cm       G             Fm      Cm
She has taken all her, mirrors down.
Cm            G              Cm                 G
So you best believe her, the girl will give you fever,
Cm                G                Fm       Cm
She's the kind to heat you up and, cool you down.

Bridge 2

Cm     G#      G                 Fm
Fever, fever, were you trying to run,
Cm     G#      G            Fm   Gm
Fever, diva, Rosemary's not do - ne.

then:

Aaaaahhhh
Cm G Cm G Cm G Fm Cm x5

If you notice any mistakes, or just want to talk about Gomez in general,
please mail me at: david@kmthomp.freeserve.co.uk.

            
            
Suggest correction
Creating personal tab
Creating personal tab
You can edit any tab online and save it as your Personal.

You can edit, replace or remove any tab part or add personal notes – all changes will be seen only by you.

Personal tabs can be accessed anytime from any device, even offline.
Learn more »
Give kudos to tab author, rate the tab!
1 2 3 4 5
comments
print report bad tab
1 comment total.
0 reply
lizardk1ng 21 Jan 13, 2010 12:54 PM

Nice tab man. After following your spot-on intro section, I've just played the main body of the song through using just general arpeggi fingerpicking across the first four strings using your chord shapes and it sounds tip-top! I'm not sure but it could be you finish the verse progression on a Gm before heading back to the Cm, but that may not be quite right.

Also, try a wee hammer-on during the intro, i.e.

11-11h12-11-------|
-------------13-12

as I think this sounds quite nice and quite like the song.

So cheers again for tabbing up my favourite track by one of my favourite bands! 'nuff respect and all that.....

guest
Wanna post a correction for this tab? Suggest correction