Oops, an error
Loading. Please wait.

Tear Your Love Apart tab

version 1
version 1

Whole song

by Gomez
67 views 1 this week
no commentswrite comment
1 2 3 4 5
3 more votes to show rating
add to favorites
×
Save as Personal and add changes to this tab that will be seen only by you. Learn more ›
×
You can save this tab as Personal to edit and correct it or add notes. All changes will be seen only by you. Learn more »
launch autoscroll
font size
0
reset
how to read this tab
guitar tuner
edit
Autoscroll
slow
fast
+/-
esc
set tempo
stop
Author
Difficulty
-------------------------------------------------------------------------------
                         Tear Your Love Apart - Gomez
-------------------------------------------------------------------------------
So here's my take at Tear Your Love Apart.

It's missing the 2nd guitar, and possibly not 100% accurate, but a good place to start from or play acoustic.

Tuning: Standard

Intro

      Em
e|----7---7---7---7---7---7---7---7---7---7---7---7---7---7---7---7|
B|----8---8---8---8---8---8---8---8---8---8---8---8---8---8---8---8|
G|----9---9---9---9---9---9---9---9---9---9---9---9---9---9---9---9|
D|----9---9---9---9---9---9---9---9---9---9---9---9---9---9---9---9|
A|----7---7---7---7---7---7---7---7---7---7---7---7---7---7---7---7|
E|-----------------------------------------------------------------|

e|---7---7---7---7---7---7---7---7---7---7---7---7---7---7---7---7-|
B|---8---8---8---8---8---8---8---8---8---8---8---8---8---8---8---8-|
G|---9---9---9---9---9---9---9---9---9---9---9---9---9---9---9---9-|
D|---9---9---9---9---9---9---9---9---9---9---9---9---9---9---9---9-|
A|---7---7---7---7---7---7---7---7---7---7---7---7---7---7---7---7-|
E|-0---7-----------0---7-----------0---7-----------0---7-----------|

Verse
     Take           my               time, dear             It's all yours
     Em                              C                    B
e|---7---7---7---7---7---7---7---7---8-----8----8----8----7---7---7---7|
B|---8---8---8---8---8---8---8---8---8-----8----8----8----7---7---7---7|
G|---9---9---9---9---9---9---9---9---9-----9----9----9----8---8---8---8|
D|---9---9---9---9---9---9---9---9---10----10---10---10---9---9---9---9|   
A|---7---7---7---7---7---7---7---7---10-10-10---10---10---9-9-9---9---9|
E|-0---7-----------0---7-----------8--------------------7--------------|

                               As the Earth goes round the sun
     Em                              C                    B     G
e|---7---7---7---7---7---7---7---7---8-----8----8----8----7---7-3-3-3-3--3-----|
B|---8---8---8---8---8---8---8---8---8-----8----8----8----7---7-3-3-3-3--3-----|
G|---9---9---9---9---9---9---9---9---9-----9----9----9----8---8-4-4-4-4--4-----|
D|---9---9---9---9---9---9---9---9---10----10---10---10---9---9-5-5-5-5--5-----|
A|---7---7---7---7---7---7---7---7---10-10-10---10---10---9-9-9-5-5-5-5--5-----|
E|-0---7-----------0---7-----------8--------------------7-------3-3-3-3--3-----|

    Life           takes     some   fighting              And it leaves scars
     Em                              C                    B
e|---7---7---7---7---7---7---7---7---8-----8----8----8----7---7---7---7|
B|---8---8---8---8---8---8---8---8---8-----8----8----8----7---7---7---7|
G|---9---9---9---9---9---9---9---9---9-----9----9----9----8---8---8---8|
D|---9---9---9---9---9---9---9---9---10----10---10---10---9---9---9---9|   
A|---7---7---7---7---7---7---7---7---10-10-10---10---10---9-9-9---9---9|
E|-0---7-----------0---7-----------8--------------------7--------------|

                              And it keeps us on the      run
     Em                              C                    B     G
e|---7---7---7---7---7---7---7---7---8-----8----8----8----7---7-3-3-3-3--3-----|
B|---8---8---8---8---8---8---8---8---8-----8----8----8----7---7-3-3-3-3--3-----|
G|---9---9---9---9---9---9---9---9---9-----9----9----9----8---8-4-4-4-4--4-----|
D|---9---9---9---9---9---9---9---9---10----10---10---10---9---9-5-5-5-5--5-----|
A|---7---7---7---7---7---7---7---7---10-10-10---10---10---9-9-9-5-5-5-5--5-----|
E|-0---7-----------0---7-----------8--------------------7-------3-3-3-3--3-----|


Pre-Chorus

  This is a game i'm     longing to play but      stumble at the start

   Bm                    C                        G
e|-----2----2----2---2------3--------3---3---3----3--------------3------|
B|-----3----3----3---3------5--------5---5---5----3----5--3--5---3------|
G|-----4----4----4---4------5--------5---5---5----4--------------4------|
D|-----4----4----4---4------5--------5---5---5----5--------------5------|
A|-2------2--------2-----3--------3--------3------5--------------3------|
E|------------------------------------------------3---------------------|

Chorus

  If there's nothing...  Tear your  love a-    part                  Tear your  love a-    part       There's
                                                      (If it's just a lie)                            still
                                                                                                      nowhere
                         E          D          E          D          E          D          E          D
e|-----------------------7--7-7--7--5--5-5--5--7--7-7--7--5--5-5--5--7--7-7--7--5--5-5--5--7--7-7--7--5--5-5-5|
B|----3------2--0--------9--9-9--9--7--7-7--7--9--9-9--9--7--7-7--7--9--9-9--9--7--7-7--7--9--9-9--9--7--7-7-7|
G|----2------2--2--------9--9-9--9--7--7-7--7--9--9-9--9--7--7-7--7--9--9-9--9--7--7-7--7--9--9-9--9--7--7-7-7|
D|-----------------------9--9-9--9--7--7-7--7--9--9-9--9--7--7-7--7--9--9-9--9--7--7-7--7--9--9-9--9--7--7-7-7|
A|-----------------------7--7-7--7--5--5-5--5--7--7-7--7--5--5-5--5--7--7-7--7--5--5-5--5--7--7-7--7--5--5-5-5|
E|------------------------------------------------------------------------------------------------------------|

   I would    rather     be       so hold on tight
                                              *(here starts the bridge)
   A                     F                       Em 
e|-5--5-5--5--5--5-5--5--1--1-1--1--1--1-1--1----7---7--|
B|-5--5-5--5--5--5-5--5--1--1-1--1--1--1-1--1----8---8--|
G|-6--6-6--6--6--6-6--6--2--2-2--2--2--2-2--2----9---9--|
D|-7--7-7--7--7--7-7--7--3--3-3--3--3--3-3--3----9---9--|
A|-7--7-7--7--7--7-7--7--3--3-3--3--3--3-3--3----7---7--|
E|-5--5-5--5--5--5-5--5--1--1-1--1--1--1-1--1--0---7----|

Bridge

     Em                              C                    B     G
e|---7---7---7---7---7---7---7---7---8-----8----8----8----7---7-3-3-3-3--3-----|
B|---8---8---8---8---8---8---8---8---8-----8----8----8----7---7-3-3-3-3--3-----|
G|---9---9---9---9---9---9---9---9---9-----9----9----9----8---8-4-4-4-4--4-----|
D|---9---9---9---9---9---9---9---9---10----10---10---10---9---9-5-5-5-5--5-----|
A|---7---7---7---7---7---7---7---7---10-10-10---10---10---9-9-9-5-5-5-5--5-----|
E|-0---7-----------0---7-----------8--------------------7-------3-3-3-3--3-----|


Verse 2
     I'm            not              frightened,          I'm all yours
     Em                              C                    B
e|---7---7---7---7---7---7---7---7---8-----8----8----8----7---7---7---7|
B|---8---8---8---8---8---8---8---8---8-----8----8----8----7---7---7---7|
G|---9---9---9---9---9---9---9---9---9-----9----9----9----8---8---8---8|
D|---9---9---9---9---9---9---9---9---10----10---10---10---9---9---9---9|  
A|---7---7---7---7---7---7---7---7---10-10-10---10---10---9-9-9---9---9|
E|-0---7-----------0---7-----------8--------------------7--------------|

                              And you keep me safe from   harm
     Em                              C                    B     G
e|---7---7---7---7---7---7---7---7---8-----8----8----8----7---7-3-3-3-3--3-----|
B|---8---8---8---8---8---8---8---8---8-----8----8----8----7---7-3-3-3-3--3-----|
G|---9---9---9---9---9---9---9---9---9-----9----9----9----8---8-4-4-4-4--4-----|
D|---9---9---9---9---9---9---9---9---10----10---10---10---9---9-5-5-5-5--5-----|
A|---7---7---7---7---7---7---7---7---10-10-10---10---10---9-9-9-5-5-5-5--5-----|
E|-0---7-----------0---7-----------8--------------------7-------3-3-3-3--3-----|

   I'm              not           enlightened             can't reach the stars
     Em                              C                    B
e|---7---7---7---7---7---7---7---7---8-----8----8----8----7---7---7---7|
B|---8---8---8---8---8---8---8---8---8-----8----8----8----7---7---7---7|
G|---9---9---9---9---9---9---9---9---9-----9----9----9----8---8---8---8|
D|---9---9---9---9---9---9---9---9---10----10---10---10---9---9---9---9|  
A|---7---7---7---7---7---7---7---7---10-10-10---10---10---9-9-9---9---9|
E|-0---7-----------0---7-----------8--------------------7--------------|

                             But I'm close around your    arms
     Em                              C                    B     G
e|---7---7---7---7---7---7---7---7---8-----8----8----8----7---7-3-3-3-3--3-----|
B|---8---8---8---8---8---8---8---8---8-----8----8----8----7---7-3-3-3-3--3-----|
G|---9---9---9---9---9---9---9---9---9-----9----9----9----8---8-4-4-4-4--4-----|
D|---9---9---9---9---9---9---9---9---10----10---10---10---9---9-5-5-5-5--5-----|
A|---7---7---7---7---7---7---7---7---10-10-10---10---10---9-9-9-5-5-5-5--5-----|
E|-0---7-----------0---7-----------8--------------------7-------3-3-3-3--3-----|

Pre-Chorus

  There is a flame that   flickers and sways but  knows why we're a- part

   Bm                    C                        G
e|-----2----2----2---2------3--------3---3---3----3------------------3------|
B|-----3----3----3---3------5--------5---5---5----3------5----3---5--3------|
G|-----4----4----4---4------5--------5---5---5----4------------------4------|
D|-----4----4----4---4------5--------5---5---5----5------------------5------|
A|-2------2--------2-----3--------3--------3------5------------------3------|
E|------------------------------------------------3-------------------------|


Chorus

  If there's nothing...  Tear your  love a-    part                  Tear your  love a-    part       There's
                                                      (If it's just a lie)                            still
                                                                                                      nowhere
                         E          D          E          D          E          D          E          D
e|-----------------------7--7-7--7--5--5-5--5--7--7-7--7--5--5-5--5--7--7-7--7--5--5-5--5--7--7-7--7--5--5-5-5|
B|----3------2--0--------9--9-9--9--7--7-7--7--9--9-9--9--7--7-7--7--9--9-9--9--7--7-7--7--9--9-9--9--7--7-7-7|
G|----2------2--2--------9--9-9--9--7--7-7--7--9--9-9--9--7--7-7--7--9--9-9--9--7--7-7--7--9--9-9--9--7--7-7-7|
D|-----------------------9--9-9--9--7--7-7--7--9--9-9--9--7--7-7--7--9--9-9--9--7--7-7--7--9--9-9--9--7--7-7-7|
A|-----------------------7--7-7--7--5--5-5--5--7--7-7--7--5--5-5--5--7--7-7--7--5--5-5--5--7--7-7--7--5--5-5-5|
E|------------------------------------------------------------------------------------------------------------|

                         Tear your  love a-    part                  Tear your  love a-    part      
 I would    rather       be         (There's nothing)                          (No place no time)             
                                                                                                      
   A          F          E          D          E          D          E          D          E          D 
e|-5--5-5--5--1--1-1--1--7--7-7--7--5--5-5--5--7--7-7--7--5--5-5--5--7--7-7--7--5--5-5--5--7--7-7--7--5--5-5-5|
B|-5--5-5--5--1--1-1--1--9--9-9--9--7--7-7--7--9--9-9--9--7--7-7--7--9--9-9--9--7--7-7--7--9--9-9--9--7--7-7-7|
G|-6--6-6--6--4--4-4--4--9--9-9--9--7--7-7--7--9--9-9--9--7--7-7--7--9--9-9--9--7--7-7--7--9--9-9--9--7--7-7-7|
D|-7--7-7--7--3--3-3--3--9--9-9--9--7--7-7--7--9--9-9--9--7--7-7--7--9--9-9--9--7--7-7--7--9--9-9--9--7--7-7-7|
A|-7--7-7--7--3--3-3--3--7--7-7--7--5--5-5--5--7--7-7--7--5--5-5--5--7--7-7--7--5--5-5--5--7--7-7--7--5--5-5-5|
E|-5--5-5--5--1--1-1--1---------------------------------------------------------------------------------------|

             Still      I would    rather     be       so hold on    tight
             nowhere                                                *(here starts the solo)

  E          D          A                     F                        
e|7--7-7--7--5--5-5--5--5--5-5--5--5--5-5--5--1--1-1--1--1--1-1--1---------|
B|9--9-9--9--7--7-7--7--5--5-5--5--5--5-5--5--1--1-1--1--1--1-1--1------8--|
G|9--9-9--9--7--7-7--7--6--6-6--6--6--6-6--6--2--2-2--2--2--2-2--2-------9-|
D|9--9-9--9--7--7-7--7--7--7-7--7--7--7-7--7--3--3-3--3--3--3-3--3---------|
A|7--7-7--7--5--5-5--5--7--7-7--7--7--7-7--7--3--3-3--3--3--3-3--3----7----|
E|----------------------5--5-5--5--5--5-5--5--1--1-1--1--1--1-1--1---------|

Solo

(Guitar 1)
e|-------------------------------------------------------------------------|
B|---8---8---8---8-----------------------------------------8---8---8---8---|
G|----9---9---9---9--9----9----8---8---9----9----9----9-----9---9---9---9--|
D|--------------------10---10---9---9---10---10---10---10------------------|
A|-7---7---7---7---------------------0---------7---------7-------7---------|
E|-----------------8----8----7---7--------7---------8--------7-------7-----|

(Guitar 2)
e|------------------------------------------------------------------------|
B|------------------------------------------------------------------------|
G|------------------------------------------------------------------------|
D|------------------------------------------------------------------------|
A|-7---9---10------------------------0----2////7\\\\3----2----------------|
E|-------------7---8-----10-8-7-------------------------------------------|


(Guitar 1)                                                E                       G
e|--------------------------------------------------------7---7---7---7---7---7---3-3-3-3--3-3--|
B|---8---8---8---8----------------------------------------8---8---8---8---8---8---3-3-3-3--3-3--|
G|----9---9---9---9--9----9----8---8---9----9----8---8----9---9---9---9---9---9---4-4-4-4--4-4--|
D|--------------------10---10---9---9---10---10---9---9---9---9---9---9---9---9---5-5-5-5--5-5--|
A|-7---7---7---7---------------------0----0---------------7---7---7---7---7---7---5-5-5-5--5-5--|
E|-----------------8----8----7---7-------------7---7------------------------------3-3-3-3--3-3--|

(Guitar 2)
e|----------------------------------------------------------------------------------------------|
B|----------------------------------------------------------------------------------------------|
G|----------------------------------------------------------------------------------------------|
D|-2---4---5///11--10--------11---------------------------------------------------5-5-5-5--5-5--|
A|-----------------------------------3--2-0-2//11--10-----7~~~~~~~~~~~~~~~~~~~----5-5-5-5--5-5--|
E|--------------------------------------------------------------------------------3-3-3-3--3-3--|


Pre-Chorus

There's nothing to blame, to get in our way or    tear   our love a- part
   Bm                    C                        G
e|-----2----2----2---2------3--------3---3---3----3------------------3------|
B|-----3----3----3---3------5--------5---5---5----3------5----3---5--3------|
G|-----4----4----4---4------5--------5---5---5----4------4----4---4--4------|
D|-----4----4----4---4------5--------5---5---5----5------------------5------|
A|-2------2--------2-----3--------3--------3------5------------------3------|
E|------------------------------------------------3-------------------------|

We're in the same place  no matter where we       are
   Bm                    C                        D
e|-----2----2----2---2------3--------3---3---3----5-5-5-5---5-5-5-5---5-5---5-5-5-5-5-5-5-5----|
B|-----3----3----3---3------5--------5---5---5----7-7-7-7---7-7-7-7---7-7---7-7-7-7-7-7-7-7----|
G|-----4----4----4---4------5--------5---5---5----7-7-7-7---7-7-7-7---7-7---7-7-7-7-7-7-7-7----|
D|-----4----4----4---4------5--------5---5---5----7-7-7-7---7-7-7-7---7-7---7-7-7-7-7-7-7-7----|
A|-2------2--------2-----3--------3--------3------5-5-5-5---5-5-5-5---5-5---5-5-5-5-5-5-5-5----|
E|---------------------------------------------------------------------------------------------|


Chorus

  If there's nothing...  Tear your  love a-    part                  Tear your  love a-    part       There's
                                                      (If it's just a lie)                            still
                                                                                                      nowhere
                         E          D          E          D          E          D          E          D
e|-----------------------7--7-7--7--5--5-5--5--7--7-7--7--5--5-5--5--7--7-7--7--5--5-5--5--7--7-7--7--5--5-5-5|
B|----3------2--0--------9--9-9--9--7--7-7--7--9--9-9--9--7--7-7--7--9--9-9--9--7--7-7--7--9--9-9--9--7--7-7-7|
G|----2------2--2--------9--9-9--9--7--7-7--7--9--9-9--9--7--7-7--7--9--9-9--9--7--7-7--7--9--9-9--9--7--7-7-7|
D|-----------------------9--9-9--9--7--7-7--7--9--9-9--9--7--7-7--7--9--9-9--9--7--7-7--7--9--9-9--9--7--7-7-7|
A|-----------------------7--7-7--7--5--5-5--5--7--7-7--7--5--5-5--5--7--7-7--7--5--5-5--5--7--7-7--7--5--5-5-5|
E|------------------------------------------------------------------------------------------------------------|

                         Tear your  love a-    part                  Tear your  love a-    part
 I would    rather       be                        (if there's nothing)                               
                                                                                                      
   A          F          E          D          E          D          E          D          E          D 
e|-5--5-5--5--1--1-1--1--7--7-7--7--5--5-5--5--7--7-7--7--5--5-5--5--7--7-7--7--5--5-5--5--7--7-7--7--5--5-5-5|
B|-5--5-5--5--1--1-1--1--9--9-9--9--7--7-7--7--9--9-9--9--7--7-7--7--9--9-9--9--7--7-7--7--9--9-9--9--7--7-7-7|
G|-6--6-6--6--4--4-4--4--9--9-9--9--7--7-7--7--9--9-9--9--7--7-7--7--9--9-9--9--7--7-7--7--9--9-9--9--7--7-7-7|
D|-7--7-7--7--3--3-3--3--9--9-9--9--7--7-7--7--9--9-9--9--7--7-7--7--9--9-9--9--7--7-7--7--9--9-9--9--7--7-7-7|
A|-7--7-7--7--3--3-3--3--7--7-7--7--5--5-5--5--7--7-7--7--5--5-5--5--7--7-7--7--5--5-5--5--7--7-7--7--5--5-5-5|
E|-5--5-5--5--1--1-1--1---------------------------------------------------------------------------------------|

Repeat E and D and end with

      E
e|----7---7---7---7---7---7---7-|
B|----9---9---9---9---9---9---9-|
G|----9---9---9---9---9---9---9-|
D|----9---9---9---9---9---9---9-|
A|----7---7---7---7---7---7---7-|
E|------------------------------|


************************************

| /   slide up
| \   slide down
| h   hammer-on
| p   pull-off
| ~   vibrato
| +   harmonic
| x   Mute note
| b   Bend
| pb  Pre-bend
| br  Bend release
| pbr Pre-bend release
| brb Bend release bend

************************************

            
            
Suggest correction
Creating personal tab
Creating personal tab
You can edit any tab online and save it as your Personal.

You can edit, replace or remove any tab part or add personal notes – all changes will be seen only by you.

Personal tabs can be accessed anytime from any device, even offline.
Learn more »
Give kudos to tab author, rate the tab!
1 2 3 4 5
comments
print report bad tab
guest
You may want to rate the tab now too:
select rating
Wanna post a correction for this tab? Suggest correction