Oops, an error
Loading. Please wait.

Absalon Bass Tab

95 views 1 this week
no commentswrite comment
1 2 3 4 5
3 more votes to show rating
add to favorites
launch autoscroll
font size
0
reset
guitar tuner
Autoscroll
slow
fast
+/-
esc
set tempo
stop
Help us to improve Ultimate-Guitar.com Take our survey!
×
Intro

G||------------------------------|--------------------| -|-
D||---------------00-------------|--------------------|  |
A||--0------2---------2--0--2--22|-----2-----2-----222|  |
E||-----33-----3-----------------|--0-----0-----0-----|  |
                                                         | x4
G||-------------------------|-----------------------|    |
D||-------------------------|-----------------------|    |
A||--000-----0--22--0-----00|--2-----2-----2-----222|    |
E||-------3------------3----|-----0-----0-----0-----|   -|-

Miro a tus ojos?
G||------------|-----------------------|
D||------------|-----------------------|
A||--------5555|--2-----2-----2-----222|
E||--3333------|-----0-----0-----0-----|

G||-------------------------|-----------------------|---------|---|
D||-------------------------|-----------------------|--2--0---|---|
A||--000-----0--22--0-----00|--2-----2-----2-----222|--------2|---|
E||-------3------------3----|-----0-----0-----0-----|---------|--3|

Mi amor de ti, pequeño?
G||------------------------------|--------------------| -|-
D||---------------00-------------|--------------------|  |
A||--0------2---------2--0--2--22|-----2-----2-----222|  |
E||-----33-----3-----------------|--0-----0-----0-----|  |
                                                         | x2
G||-------------------------|-----------------------|    |
D||-------------------------|-----------------------|    |
A||--000-----0--22--0-----00|--2-----2-----2-----222|    |
E||-------3------------3----|-----0-----0-----0-----|   -|-

Inmensa es la esperanza que aun nos tiene?
G||-------------------------|-----------------------|
D||-------------------------|-----------------------|
A||--000-----0--22--0-----00|--2-----2-----2-----222|
E||-------3------------3----|-----0-----0-----0-----|

Lo imposible para muchos es posible?
G||------------------------------|--------------------|
D||---------------00-------------|--------------------|
A||--0------2---------2--0--2--22|-----2-----2-----222|
E||-----33-----3-----------------|--0-----0-----0-----|

G||-------------------------|-----------------------|
D||-------------------------|-----------------------|
A||--000-----0--22--0-----00|--2-----2-----2-----222|
E||-------3------------3----|-----0-----0-----0-----|

Miro a tus ojos yo me veo en ti?
G||------------|-----------------------|
D||------------|-----------------------|
A||--------5555|--2-----2-----2-----222|
E||--3333------|-----0-----0-----0-----|

G||-------------------------|-----------------------|---------|---|
D||-------------------------|-----------------------|--2--0---|---|
A||--000-----0--22--0-----00|--2-----2-----2-----222|--------2|---|
E||-------3------------3----|-----0-----0-----0-----|---------|--3|

Mi amor de ti, pequeño?
G||------------------------------|--------------------| -|-
D||---------------00-------------|--------------------|  |
A||--0------2---------2--0--2--22|-----2-----2-----222|  |
E||-----33-----3-----------------|--0-----0-----0-----|  |
                                                         | Hasta
G||-------------------------|-----------------------|    | que
D||-------------------------|-----------------------|    | termina
A||--000-----0--22--0-----00|--2-----2-----2-----222|    |
E||-------3------------3----|-----0-----0-----0-----|   -|-
Suggest correction
Give kudos to tab author, rate the tab!
1 2 3 4 5
comments
print report bad tab
guest
You may want to rate the tab now too:
select rating
Wanna post a correction for this tab? Suggest correction