Oops, an error
Loading. Please wait.

Aire De Jah Bass

version 2
version 2

Whole song

134 views 1 this week
no commentswrite comment
1 2 3 4 5
3 more votes to show rating
add to favorites
launch autoscroll
font size
0
reset
guitar tuner
×
Best way to learn
"Aire De Jah"
Autoscroll
slow
fast
+/-
esc
set tempo
stop
esta es mi primera transcripción espero les sirva las notas son
las que se escuchan asi como esta en el CD así que a darle con todo al bajo
saludos desde la Grecia del salvador Santa Elena
   BIS 2
G----------------------------
D----------------------------
A5-3-------5-5-----------6-6-
E---6-5-3-3---3--3-0-3--6-6--

G-------------------------------------------
D-------------------------------------------
A-5-5-3---------------------6-6-5Â?-(5)2ª VEZ
E5-5---6-5-3-3-0-0-3-3-0Â?3-6-6-5-5----------
   BIS 6
G----------------------------------------------
D----------------------------------------------
A---------5--5--3--3-----------6---------------
E--3-3----------------6--3--6---6-6-3-5-5--1Â?--


   BIS 3
G--------------------------------------
D--------------------------------------
A--6---6--5---5-3-3-3-3-3-3-3-3-6-5Â?5--
E---3-6----1-5-----3---3---3---------6-


G---------------------------------
D---------------------------------
A------5-5-----5-5-6-6-----5-5----
E-3-3-3---3-3-3-------6Â?6-6---6-5-
fin
Suggest correction
Give kudos to tab author, rate the tab!
1 2 3 4 5
comments
print report bad tab
guest
You may want to rate the tab now too:
select rating
Wanna post a correction for this tab? Suggest correction