Oops, an error
Loading. Please wait.

Amor Prohibido Tab

124 views 3 this week
no commentswrite comment
1 2 3 4 5
3 more votes to show rating
add to favorites
launch autoscroll
font size
0
reset
how to read this tab
guitar tuner
×
Best way to learn
"Amor Prohibido"
Autoscroll
slow
fast
+/-
esc
set tempo
stop
Intro:

                     Gm       C         F     Dm
e|----------------5h6-6---------5h6-8--5--------|
B|---6p5----5-6---------------------------------|
G|--------7-----7-------5h7--5------------------|
D|----------------------------------------------|
A|----------------------------------------------|
E|----------------------------------------------|

                    Gm                            A7             Dm
e|---------------------------------------------------------------------|
B|--6p5----5-6----6/8---11-10-8h10p8-8-6-5h6p5---5----6h8-6-8p6--------|
G|-------7-----7-------------------------------7---6------------7------|
D|---------------------------------------------------------------7--0--|
A|----------------------------------------------------------------8----|
E|---------------------------------------------------------------------|


D7                Gm
A pesar de lo que dicen
  C               F   Dm
Todo en mi esta bien
                Gm
Secaron las cicatrices
     A7           Dm
De aquel amor de ayer
D7                 Gm
La distancia de tu boca
  C          F
esta matándome
Dm                 Gm
esto es un amor prohibido
                 A7
y tu sacaste partido
                 Dm
a este pobre querer

.:: Pre-Coro ::.

 D7                                    Gm C
Por tu culpa de tus dulces labios de veneno
 F                          Dm
ojos de niña en cuerpo de mujer
  Gm                      A7
toda mi ilusión has destruido
      Dm                           D7
al decirme que este amor no puede ser

.:: CoRo ::.

          Gm C         F    Dm
amor prohibido, amor perdido.
       Gm                  A7
Ya sin ti no se vivir y ya no quiero sentir
             Dm                          D7
junto a mi cuerpo otra piel mas que tu piel
          Gm C         F    Dm
amor prohibido, amor perdido.
   Gm                     A7
toda mi ilusión has destruido
         Dm
amor prohibido

/// Aqui se toca el intro mientras se canta el rap ///

Y son las mismas pisadas  Gm C F - Dm Gm A7 Dm

Amor prohibido
en busca de libertad
en ti quisiera respirar, descansar
en tus ojos veo energía que me impacta
y me perturba yo no quiero que se confunda
Solo necesito hablar
lo que siento es real
pero no puedo cambiar
nada mas me queda soñar
que nos podemos encontrar
en otra vida en otro lugar

.:: Bis Pre-Coro, Bis Coro ::.

/// Aqui se toca el intro mientras se canta el rap ///

Y son las mismas pisadas  Gm C F - Dm Gm A7 Dm

Deseos que con el tiempo vivirán en mí
para seguir en mi memoria que siga la historia
hora tras hora tras el dibujo
lo que busco encontrar
solo necesito hablar
lo que siento es real
pero no puedo cambiar
nada mas me queda soñar
que nos podremos encontrar
en otra vida en otro lugar

.:: CORO ::.

Espero que les guste esta versión, a mi me gusta como se escucha
ojalá opinen lo mismo, Saludos a la banda de San Miguel de Allende, Gto.
De mi parte (Beto Mota) y de Dolmen atom_slash@ , se aceptan
criticas. bye
Suggest correction
Give kudos to tab author, rate the tab!
1 2 3 4 5
comments
print report bad tab
guest
You may want to rate the tab now too:
select rating
Wanna post a correction for this tab? Suggest correction