Oops, an error
Loading. Please wait.

Chance Bass

18 views 1 this week
no commentswrite comment
1 2 3 4 5
3 more votes to show rating
add to favorites
launch autoscroll
font size
0
reset
guitar tuner
×
Best way to learn
"Chance"
Autoscroll
slow
fast
+/-
esc
set tempo
stop
NOTA: Bajar la cuarta cuerda a Re, suerte...

Intro

G||-----------------------|------------------------| -|-
D||-----------------------|------------------------|  |
A||-----------------------|------------------------|  | x14
E||--5--7--8--0--3--55--33|--3--5--7--0--3--555--33| -|-

Recomenzar Ahhhh Ahhhh, dame una chance?
G||--------------|-----------------------------------|       -|-
D||--------------|---------55-----3--2--3------------|        |
A||-------555--22|-----55------5-----------5---------|        |
E||--555---------|--5-------------------------7--5--3|        |
                                                              |
G||-------------------|-----------|--------------------|      |
D||-------------------|-----------|--3--2--3-----------|      |
A||-------------555---|-----------|-----------5--------|      |
E||--3--55--77-------5|--5--888--5|--------------7?5--3|      | x2
                                                              |
G||--------------|-----------------------------------|        |
D||--------------|---------55-----3--2--3------------|        |
A||-------555--22|-----55------5-----------5---------|        |
E||--555---------|--5-------------------------7--5--3|        |
                                                              |
G||-------------------|-----------|------------------------|  |
D||-------------------|-----------|-----3--2--3------------|  |
A||-------------555---|-----------|--5-----------5---------|  |
E||--3--55--77-------5|--5--888--5|-----------------7--5--3| -|-

Atrás quedaron las sonrisas marcadas?
G||-----------------------|------------------------| -|-
D||-----------------------|------------------------|  |
A||-----------------------|------------------------|  | x8
E||--5--7--8--0--3--55--33|--3--5--7--0--3--555--33| -|-

Recomenzar Ahhhh Ahhhh,dame una chance?
G||--------------|-----------------------------------|       -|-
D||--------------|---------55-----3--2--3------------|        |
A||-------555--22|-----55------5-----------5---------|        |
E||--555---------|--5-------------------------7--5--3|        |
                                                              |
G||-------------------|-----------|--------------------|      |
D||-------------------|-----------|--3--2--3-----------|      | Hasta
A||-------------555---|-----------|-----------5--------|      | que
E||--3--55--77-------5|--5--888--5|--------------7?5--3|      | llega
                                                              | al
G||--------------|-----------------------------------|        | final
D||--------------|---------55-----3--2--3------------|        |
A||-------555--22|-----55------5-----------5---------|        |
E||--555---------|--5-------------------------7--5--3|        |
                                                              |
G||-------------------|-----------|------------------------|  |
D||-------------------|-----------|-----3--2--3------------|  |
A||-------------555---|-----------|--5-----------5---------|  |
E||--3--55--77-------5|--5--888--5|-----------------7--5--3| -|-
Suggest correction
Give kudos to tab author, rate the tab!
1 2 3 4 5
comments
print report bad tab
guest
You may want to rate the tab now too:
select rating
Wanna post a correction for this tab? Suggest correction