Oops, an error
Loading. Please wait.

Cidade Pulse Bass Tab

17 views 3 this week
no commentswrite comment
1 2 3 4 5
3 more votes to show rating
add to favorites
launch autoscroll
font size
0
reset
guitar tuner
Autoscroll
slow
fast
+/-
esc
set tempo
stop
Help us to improve Ultimate-Guitar.com Take our survey!
×
Intro

G|----------------|
D|----------------|
A|----------------|
E|------14/-------|

G|----------------|----------------|
D|----------------|----------------|
A|----------------|--------44-47--7| x4
E|4-4----2444----4|5-5----5--------|

Verso Portugués

G|----------------|----------------|
D|----------------|----------------|
A|----------------|--------44-47--7| x4
E|4-4----2444----4|5-5----5--------|

G|----------------|----------------|
D|----------------|----------------|
A|--------666----6|----------------| x2
E|4-4----4--------|2-2----2222----2|

G|----------------|----------------|
D|----------------|----------------|
A|----------------|--------44-47--7| x2
E|4-4----2444----4|5-5----5--------|

Coro Portugués

G|----------------|----------------|
D|----------------|----------------|
A|--------666----6|----------------| x3
E|4-4----4--------|2-2----2222----2|

Post Coro Portugués

G|----------------|----------------|
D|----------------|----------------|
A|----------------|--------44-47--7| x3
E|4-4----2444----4|5-5----5--------|

G|----------------|----------------|
D|-----REST-------|-----REST-------|
A|-----REST-------|-----REST-------|
E|----------------|----------------|

Verso Español

G|----------------|----------------|
D|----------------|----------------|
A|----------------|--------44-47--7| x4
E|4-4----2444----4|5-5----5--------|

G|----------------|----------------|
D|----------------|----------------|
A|--------666----6|----------------| x2
E|4-4----4--------|2-2----2222----2|

G|----------------|----------------|
D|----------------|----------------|
A|----------------|--------44-47--7| x2
E|4-4----2444----4|5-5----5--------|

Coro Español

G|----------------|----------------|
D|----------------|----------------|
A|--------666----6|----------------| x3
E|4-4----4--------|2-2----2222----2|

Solo

G|----------------|----------------|
D|----------------|----------------|
A|----------------|--------44-47--7| x3
E|4-4----2444----4|5-5----5--------|

G|----------------|----------------|
D|----------------|----------------|
A|----------------|---------4-7----|
E|4-4----2444----4|5-5-----5-------|

Outro

G|----------------|----------------|
D|----------------|----------------|
A|----------------|--------44-47--7| x8
E|4-4----2444----4|5-5----5--------|

G|----------------|
D|64--------------|
A|--76764---------|
E|-------74-------|

Bueno, creo que es así, es bastante sencilla.
Cualquier duda o sugerencia, neoswat@
Suggest correction
Give kudos to tab author, rate the tab!
1 2 3 4 5
comments
print report bad tab
guest
You may want to rate the tab now too:
select rating
Wanna post a correction for this tab? Suggest correction