Oops, an error
Loading. Please wait.

Divina Verdad Bass Tab

41 views 1 this week
no commentswrite comment
1 2 3 4 5
3 more votes to show rating
add to favorites
launch autoscroll
font size
0
reset
guitar tuner
Autoscroll
slow
fast
+/-
esc
set tempo
stop
Help us to improve Ultimate-Guitar.com Take our survey!
×
Intro y empieza...

G||------------------------------|----------------| -|-
D||--2--2--0-----------2--3--3--3|--2--2---0------|  |
A||-----------3--0--3------------|------------3--0|  |
E||------------------------------|----------------|  |
                                                     |x6
G||-----------------------0|                         |
D||-----0--0-----------0---|                         |
A||--3--------3--0--3------|                         |
E||------------------------|                        -|-


La verdad que han tenido escondida...

G||----------------------------|------------------------------|
D||-----2--0------------3--3--0|-----2--0-----------0---------|
A||--0---------3--0--3---------|--0--------3--0--3------------| x4
E||----------------------------|-----------------------3--3--3|


Despierta de este eterno letargo...

G||------------------------------|----------------| -|-
D||--2--2--0-----------2--3--3--3|--2--2---0------|  |
A||-----------3--0--3------------|------------3--0|  |
E||------------------------------|----------------|  |
                                                     |x4
G||-----------------------0|                         |
D||-----0--0-----------0---|                         |
A||--3--------3--0--3------|                         |
E||------------------------|                        -|-


La verdad que han tenido escondida...

G||----------------------------|------------------------------|
D||-----2--0------------3--3--0|-----2--0-----------0---------|
A||--0---------3--0--3---------|--0--------3--0--3------------| x2
E||----------------------------|-----------------------3--3--3|


Del miedo,frustración y dolor...


G||------------------------------|----------------| -|-
D||--2--2--0-----------2--3--3--3|--2--2---0------|  |
A||-----------3--0--3------------|------------3--0|  |
E||------------------------------|----------------|  |
                                                     |x2
G||-----------------------0|                         |
D||-----0--0-----------0---|                         |
A||--3--------3--0--3------|                         |
E||------------------------|                        -|-


La verdad que han tenido escondida...

G||----------------------------|------------------------------|
D||-----2--0------------3--3--0|-----2--0-----------0---------|
A||--0---------3--0--3---------|--0--------3--0--3------------| x2
E||----------------------------|-----------------------3--3--3|


                       Divina verdad esa es la luz de Jah...

G||------------------------------|----------------| -|-
D||--2--2--0-----------2--3--3--3|--2--2---0------|  |
A||-----------3--0--3------------|------------3--0|  |
E||------------------------------|----------------|  |
                                                     |x2
G||-----------------------0|                         |
D||-----0--0-----------0---|                         |
A||--3--------3--0--3------|                         |
E||------------------------|                        -|-


La verdad que han tenido escondida...

G||----------------------------|------------------------------|
D||-----2--0------------3--3--0|-----2--0-----------0---------|
A||--0---------3--0--3---------|--0--------3--0--3------------| x4
E||----------------------------|-----------------------3--3--3|


G||------------------------------|----------------| -|-
D||--2--2--0-----------2--3--3--3|--2--2---0------|  |
A||-----------3--0--3------------|------------3--0|  |
E||------------------------------|----------------|  |
                                                     |x7
G||-----------------------0|                         |
D||-----0--0-----------0---|                         |
A||--3--------3--0--3------|                         |
E||------------------------|                        -|-


G||-------------------------------------------|
D||--2--2--0-----------2--3--3--3--(slide)--13|
A||-----------3--0--3-------------------------|
E||-------------------------------------------|

G||---------------------------------------0|
D||--2--2---0-----------0--0-----------0---|
A||------------3--0--3--------3--0--3------|
E||----------------------------------------|


G||------------------------------|----------------| -|-
D||--2--2--0-----------2--3--3--3|--2--2---0------|  |
A||-----------3--0--3------------|------------3--0|  |
E||------------------------------|----------------|  | Repetir
                                                     | hasta
G||-----------------------0|                         | terminar
D||-----0--0-----------0---|                         |
A||--3--------3--0--3------|                         |
E||------------------------|                        -|-

Nota: El slide va para la derecha,no del traste 13 al 3,escuchen
la cancion...
Suggest correction
Give kudos to tab author, rate the tab!
1 2 3 4 5
comments
print report bad tab
guest
You may want to rate the tab now too:
select rating
Wanna post a correction for this tab? Suggest correction