Oops, an error
Loading. Please wait.

Fluye Bass

41 views 1 this week
no commentswrite comment
1 2 3 4 5
3 more votes to show rating
add to favorites
launch autoscroll
font size
0
reset
guitar tuner
×
Best way to learn
"Fluye"
Autoscroll
slow
fast
+/-
esc
set tempo
stop
NOTA: Bajar la cuarta cuerda a Re?
Escuchen bien la canción por el punch del bajo,
aquí esto es lo que cuenta?Suerte

Intro

G||--------------------------------|-----------------------|
D||--------------------------------|-----------------------|
A||--0-------0-----------00-------0|--0--55--77--5--5--5--7|
E||-----555-----0--5--0------555---|-----------------------|

G||-------------------|----------|                         |
D||-------------------|----------|         Así va toda     |
A||--0--55--77--555--7|--7--55--7|         la rola         |
E||-------------------|----------| ------------------------|


Casi finalizando la canción entra esta variación?
G||--------------------------------|----------------------------|
D||--------------------------------|----------------------------|
A||--0-------0-----------00-------0|--0--55--7-----7-----7--7--5|
E||-----555-----0--5--0------555---|------------8-----8---------|

G||----------------|
D||----------------|
A||--7--5--7--55--7|
E||----------------|

Después de esta parte continua con lo mismo hasta que termina?
Suggest correction
Give kudos to tab author, rate the tab!
1 2 3 4 5
comments
print report bad tab
guest
You may want to rate the tab now too:
select rating
Wanna post a correction for this tab? Suggest correction