Oops, an error
Loading. Please wait.

Fluye Tab

42 views 1 this week
no commentswrite comment
1 2 3 4 5
3 more votes to show rating
add to favorites
launch autoscroll
font size
0
reset
how to read this tab
guitar tuner
Autoscroll
slow
fast
+/-
esc
set tempo
stop
solo:
jonathong56


e|---------------------------------------------------------------|
B|---------------------------------------------------------------|
G|--------------12-14~~-12-14-12-14^16-14p12---------------------|
D|--------12-14------------------------------14------------------|
A|--12h14--------------------------------------------------------|
E|---------------------------------------------------------------|

e|-----------------------------------------------------------------|
B|-----------------------------------------------------------------|
G|--------12-16-12-14-12--14p12-16-12-14-12-----12-----------------|
D|--12-14------------------------------------14----14-12-----------|
A|-------------------------------------------------------14p12-14--|
E|-----------------------------------------------------------------|

e|---------------------------------------------------------------|
B|---------------------------------------------------------------|
G|---------------------------------------------------------------|
D|--------------------------------------------14-14--------------|
A|--10/12-10/12-10-10-9/7/9--10-9-10/12-12/14--------------------|
E|---------------------------------------------------------------|

e|---------------------------------------------------------------|
B|---------------------------------------------------------------|
G|--16p14-12----------12-----------------12----14-12-------------|
D|-----------14p12-14----14-12-----12/14----14-------------------|
A|-----------------------------14--------------------------------|
E|---------------------------------------------------------------|

e|---------------------------------------------------------------|
B|--------------------15-15^17-15^17-----------------------------|
G|-----12-16-14-14/16--------------------------------------------|
D|--14-----------------------------------------------------------|
A|---------------------------------------------------------------|
E|---------------------------------------------------------------|
Suggest correction
Give kudos to tab author, rate the tab!
1 2 3 4 5
comments
print report bad tab
guest
You may want to rate the tab now too:
select rating
Wanna post a correction for this tab? Suggest correction