Oops, an error
Loading. Please wait.

Fuego Bendito Bass Tab

36 views 3 this week
no commentswrite comment
1 2 3 4 5
3 more votes to show rating
add to favorites
launch autoscroll
font size
0
reset
guitar tuner
×
Best way to learn
"Fuego Bendito"
Autoscroll
slow
fast
+/-
esc
set tempo
stop
Intro

G||--------------------------|----------|--------|-------------------|
D||-----5--4--5--4-----5-----|----------|--------|------5--4--5--4---|
A||--7--------------7-----777|----------|--------|------------------7|
E||--------------------------|--0--33--5|--3--555|--77---------------|

G||--------|----------|--------|-------------------|--------|
D||--5-----|----------|--------|------5--4--5--4---|--5-----|
A||-----777|----------|--------|------------------7|-----777|
E||--------|--0--33--5|--3--555|--77---------------|--------|

G||----------|--------|-------------------|--------|
D||----------|--------|------5--4--5--4---|--5-----|
A||----------|--------|------------------7|-----777|
E||--0--33--5|--3--555|--77---------------|--------|

G||----------|--------|-------------------|--------|
D||----------|--------|------5--4--5--4---|--5-----|
A||----------|--------|------------------7|-----777|
E||--0--33--5|--3--555|--77---------------|--------|

G||----------|--------|-------------------|
D||----------|--------|------5--4--5--4---|
A||----------|--------|------------------7|
E||--0--33--5|--3--555|--77---------------|

Elevándome así?
G||--------|------------|--------|-----------| -|-
D||--5-----|--------5---|--5-----|-------5---|  |
A||-----777|-----------7|-----777|----------7|  | x3
E||--------|--7?7-------|--------|--777------| -|-

Esta parte se repite unas 3 veces antes de que entren los
metales y a la parte de "todo tiempo esta escrito..."

De ahi la canción es prácticamente lo mismo en toda
la secuencia de la rola, la estructura es igual, les dejo
unicamente las partes donde hace el cambio por que de ahí
en adelante es lo mismo?Escuchenla bien, suerte!!!
Suggest correction
Give kudos to tab author, rate the tab!
1 2 3 4 5
comments
print report bad tab
guest
You may want to rate the tab now too:
select rating
Wanna post a correction for this tab? Suggest correction