Oops, an error
Loading. Please wait.

Irie Bass Tab

72 views 1 this week
no commentswrite comment
1 2 3 4 5
3 more votes to show rating
add to favorites
launch autoscroll
font size
0
reset
guitar tuner
Autoscroll
slow
fast
+/-
esc
set tempo
stop
Help us to improve Ultimate-Guitar.com Take our survey!
×
Intro							      x2
G||------------------------------------------------------------||
D||------------------------------------------------------------||
A||--3-3--3-3--3-2----------------3-3--3-3--3-5----------------||
E||----------------5---0--3-3--5----------------5---0--3-3--5--||


							      x2
G||------------------------------------------------------------||
D||------------------------------------------------------------||
A||--3-3--3-3--3-2----------------3-3--3-3--3-5----------------||
E||----------------5---0--3-3--5----------------5---0--3-3--5--||
    Irie, conciencia del alma


G||--9/x--||
D||-------||
A||-------||
E||-------||


G||------------------------------------------------------------||
D||------------------------------------------------------------||
A||--3-3--3-3--3-2----------------3-3--3-3--3-5----------------||
E||----------------5---0--3-3--5----------------5---0--3-3--5--||


Y así es todo el tema...


Sugerencias desideratum@
Suggest correction
Give kudos to tab author, rate the tab!
1 2 3 4 5
comments
print report bad tab
guest
You may want to rate the tab now too:
select rating
Wanna post a correction for this tab? Suggest correction