Oops, an error
Loading. Please wait.

K-In Bass

45 views 6 this week
no commentswrite comment
1 2 3 4 5
3 more votes to show rating
add to favorites
launch autoscroll
font size
0
reset
guitar tuner
×
Best way to learn
"K-in"
Autoscroll
slow
fast
+/-
esc
set tempo
stop
G--------------------------
D-----------2-2--------------
A---4---2h4------------------
E---------------4-4-2-------


G-----------/--------------
D--------2--/---2----------
A--2-4-2--4-/-4--4-2---2---
E-----------/--------4-----


se repite durante toda la cancion
es muy sencillo
el bajo se escucha muy bien en la cancion
asi q no sera problema esucharlo

por dudas o consultas

italreggae@

italreggae

reggae roots, rastfarismo uruguayo y otras yerbas

Suggest correction
Give kudos to tab author, rate the tab!
1 2 3 4 5
comments
print report bad tab
guest
You may want to rate the tab now too:
select rating
Wanna post a correction for this tab? Suggest correction