Oops, an error
Loading. Please wait.

K-In Tab

44 views 1 this week
no commentswrite comment
1 2 3 4 5
2 more votes to show rating
add to favorites
launch autoscroll
font size
0
reset
how to read this tab
guitar tuner
Autoscroll
slow
fast
+/-
esc
set tempo
stop
Help us to improve Ultimate-Guitar.com Take our survey!
×
Esta es la correcion
Solo lleva C#m y G#m

Aqui les va el intro:

Esto tocalo con distorcion

                            |Esta parte va con palm|
1---------------------------|----------------------|
2---------------------------|----------------------|
3--8-6-4-6~-----4-6-4-----|----------------------|
4-----------------------6-4-|------4-6-4-----------|
5---------------------------|--4-6-----------------|
6---------------------------|----------------------|

   | Esta parte va rapida   |
1--|--131211----------------|
2--|--------131211----------|
3--|---------------11-10-11-|
4--|------------------------|
5--|------------------------|
6--|------------------------|

1-----------------------------|
2--13--15--171717---19--|
3-----------------------------|
4-----------------------------|
5-----------------------------|
6-----------------------------|

CORO...
  C#m                               G#m
por envidia se derramo, la primera sangre en la tiera
  C#m                      G#m
fue por envidia cosecha tanto dolor

 C#m                               G#m
por envidia se derramo, la primera sangre en la tiera
  C#m                      G#m
fue por envidia cosecha tanto dolor

uuuuoooooo!!!   uuuuooooooo!!!

VERSO 1...
C#m              G#m
Desde tiempos inmemboriables
C#m                    G#m
desde el principio de la creacion
C#m                    G#m
el hombre convive con sus temores
C#m                    G#m
y se hace esclavo de su posesion, uuuoooo

VERSO 2...
 C#m             G#m
sentir que es injusto,
           C#m                    G#m
lo que es justo de la bondad del creador
       C#m                G#m
el sol sale a diario para todos,
      C#m                       G#m
pero siempre hace para el mas calor

  (CORO)

 C#m                  G#m
es su marcaje que es indeleble
 C#m                 G#m
y es como tu huella en cada accion
  C#m                G#m
es su marca que lleva dentro
         C#m           G#m
como el latido de su corazon

  (VERSO 2)

  (CORO)

  (CORO)


*******************************
Tablatura por Isef Gonzalez
Desde Monterrey N.L Mexico
Cualquier cosa
isef_hunter@
Suggest correction
Give kudos to tab author, rate the tab!
1 2 3 4 5
comments
print report bad tab
guest
You may want to rate the tab now too:
select rating
Wanna post a correction for this tab? Suggest correction