Oops, an error
Loading. Please wait.

Libertad Tab

41 views 1 this week
no commentswrite comment
1 2 3 4 5
3 more votes to show rating
add to favorites
launch autoscroll
font size
0
reset
how to read this tab
guitar tuner
Autoscroll
slow
fast
+/-
esc
set tempo
stop
Help us to improve Ultimate-Guitar.com Take our survey!
×
OK, esta es mi primera tablatura, siepre pense q el primer tab q
isiera seria una rola bien chila... y sip aki sta !!!

Pa toda la rola use estos acordes: G, D, E y C

  El intro...
*** Las notas en parentesis son como una especie de muted ***

e|--3------------2-------------0-------------0-------------
B|--0------------3-------------0-------------1-------------
G|--0------------2-------------0-------------0-------------
D|--0------------0-------------2-------------2----------2--
A|--2------------x-------------2----------2--3----(3)-----
E|--3---------3--x-------------0----(0)-----0-------------

e|--3------------2-------------0----------------0---------0--------0---|
B|--0------------3-------------0------0---------1------------1---------|
G|--0------------2-------------0----------------0------0--------0------|
D|--0------------0----------0--2----2-----------2---2------------------|
A|--2------------x----(0)-----2-----------2----3----------------------|
E|--3---------3--x-------------0----------------0----------------------|


  Pa los versos...

e|--3---------3--------3---2---------2--------2---
B|--0----------------------3----------------------
G|--0------0--------0------2------2--------2------
D|--0---0------------------0---0------------------
A|--2----------------------x----------------------
E|--3----------------------x----------------------

e|--0---------0--------0---0---------0--------0-----|
B|--0----------------------1------------1-----------|
G|--0------0--------0------0------0--------0--------|
D|--2---2------------------2---2--------------------|
A|--2----------------------3------------------------|
E|--0----------------------0------------------------|
*** El arpegillo de los versos se repite 6 veces ***


 Donde empieza a cantar "politicos ciegos, militares..."
 y tambien el pedazo de "libertad, libertad, libertad..."
 utilizo este

e|--3---------3--------3---2---------2--------2---
B|--0------------0---------3------------3---------
G|--0------0--------0------2------2--------2------
D|--0---0------------------0---0------------------
A|--2----------------------x----------------------
E|--3----------------------x----------------------

e|--0---------0--------0---0---------0--------0-----|
B|--0------------0---------1------------1-----------|
G|--0------0--------0------0------0--------0--------|
D|--2---2------------------2---2--------------------|
A|--2----------------------3------------------------|
E|--0----------------------0------------------------|
*** Este se va repetir 4 veces ***


Para finalizar uso el arpegillo del verso 4 veces mas
pero cambio el ultimo acorde (D) la 4ta vez (solo le bajo el tempo)

e|--3---------3--------3---2---------2--------2--
B|--0----------------------3---------------------
G|--0------0--------0------2------2--------2-----
D|--0---0------------------0---0-----------------
A|--2----------------------x---------------------
E|--3----------------------x---------------------

e|--0---------0--------0---0---------0--------0-----|---3-----
B|--0----------------------1------------1-----------|---3-----
G|--0------0--------0------0------0--------0--------|---4-----
D|--2---2------------------2---2--------------------|---5-----
A|--2----------------------3------------------------|---5-----
E|--0----------------------0------------------------|---3-----
Termino con ese ultimo G dejandolo sonar

(si tienes un compa q de toke armonica repite unas veces mas el arpegio)


*** Aki les dejo la letra de la version q tengo ***


  No puedo olvidar
  a tanta gente
  que sufre en cara,
  victimas de la necesidad
  en su lucha
  por un mejor mañana.

  A veces quisiera olvidar
  a este mundo carente de amor,
  de fe y vida.
  Podríamos curar
  la herida horrible
  que al mundo separa.

  No puedo olvidar
  el canto libre
  de VICTOR JARA.
  No puedo aceptar
  tanto acto de impunidad
  e hipocresía.

    Politicos ciegos, militares,
    sedientos por matar...
    la libertad, la libertad, libertad
    justicia e igualdad
    libertad, libertad, libertad
    de ser y de expresar

  libertad..........


Bueno pues, asi es komo sako esa rola, espero les ayude.....

  Hernan Grijalva
   mts_radikal@

Un saludo pa todos los mastersillos de San Lukas
(y los q andan desvalagados tambien)!!!
Suggest correction
Give kudos to tab author, rate the tab!
1 2 3 4 5
comments
print report bad tab
guest
You may want to rate the tab now too:
select rating
Wanna post a correction for this tab? Suggest correction