Oops, an error
Loading. Please wait.

Mejor Que Intentes Otra Vez Bass Tab

55 views 3 this week
no commentswrite comment
1 2 3 4 5
3 more votes to show rating
add to favorites
launch autoscroll
font size
0
reset
guitar tuner
×
Best way to learn
"Mejor Que Intentes Otra Vez"
Autoscroll
slow
fast
+/-
esc
set tempo
stop
Oscurecio tu dia...

G||-----------0---------|----------------------------| -|-
D||--------0-----4--0---|-----2--0--2----------------|  |
A||-----2--------------2|--2-----------3--2---3------|  |
E||--3------------------|------------------------3--0|  |
                                                        | X2
G||---------------------------|                         |
D||---------------------------|                         |
A||---------------------------|                         |
E||--0--3--3--3--3--2--2--2--0|                        -|-

Toda esta teoría dedujo...

G||---------------|------------|--999---------999------|
D||--------------0|--0--------0|--------9----------9---|
A||--3--------3---|-----0--0---|-----------7----------7|
E||-----3--3------|------------|-----------------------|

G||---------------|------------|
D||--------------0|--0--------0|
A||--3--------3---|-----0--0---|
E||-----3--3------|------------|


G||--999------------------------|------------------|
D||-------9--------------5--5---|-----------------0|
A||----------7--------7--------7|--3--3--------3---|
E||-------------7--7------------|--------3--3------|

G||-----------|--999--------999------|
D||--0-------0|-------9----------9---|
A||-----0--0--|----------7----------7|
E||-----------|----------------------|

G||------------------|-----------------|--------------|
D||------------------|--------------0--|--0-------0--0|
A||--0--0--------0--0|--0--------0-----|-----0--0-----|
E||--------0--0------|-----0--0--------|--------------|


Mejor que intentes otra vez...

G||-----------0---------|----------------------------| -|-
D||--------0-----4--0---|-----2--0--2----------------|  |
A||-----2--------------2|--2-----------3--2---3------|  |
E||--3------------------|------------------------3--0|  |
                                                        |x3
G||---------------------------|                         |
D||---------------------------|                         |
A||---------------------------|                         |
E||--0--3--3--3--3--2--2--2--0|                        -|-


G||-----------0---------|----------------------------|
D||--------0-----4--0---|-----2--0--2----------------|
A||-----2--------------2|--2-----------3--2---3------|
E||--3------------------|------------------------3--0|

G||---------------|
D||---------------|
A||--0--0--------0|
E||--------0--0---|


G||----------------|---------------|
D||---------------0|--0--------0--0|
A||--0--------0----|-----0--0------|
E||-----0--0-------|---------------|

Y cada mal que pasó...

G||---------------------0---------|----------------------------|
D||------------------0-----4--0---|-----2--0--2----------------|
A||--14(slide)----2--------------2|--2-----------3--2---3------|
E||------------3------------------|------------------------3--0|

G||---------------------------|
D||---------------------------|
A||---------------------------|
E||--0--3--3--3--3--2--2--2--0|

G||---------------|------------|--999---------999------|
D||--------------0|--0--------0|--------9----------9---|
A||--3--------3---|-----0--0---|-----------7----------7|
E||-----3--3------|------------|-----------------------|

G||---------------|------------|
D||--------------0|--0--------0|
A||--3--------3---|-----0--0---|
E||-----3--3------|------------|

G||--999------------------------|------------------|
D||-------9--------------5--5---|-----------------0|
A||----------7--------7--------7|--3--3--------3---|
E||-------------7--7------------|--------3--3------|

G||-----------|--999--------999------|
D||--0-------0|-------9----------9---|
A||-----0--0--|----------7----------7|
E||-----------|----------------------|

G||------------------|-----------------|--------------|
D||------------------|--------------0--|--0-------0--0|
A||--0--0--------0--0|--0--------0-----|-----0--0-----|
E||--------0--0------|-----0--0--------|--------------|

Mejor que intentes otra vez...

G||-----------0---------|----------------------------| -|-
D||--------0-----4--0---|-----2--0--2----------------|  |
A||-----2--------------2|--2-----------3--2---3------|  |
E||--3------------------|------------------------3--0|  |
                                                        |x2
G||---------------------------|                         |
D||---------------------------|                         |
A||---------------------------|                         |
E||--0--3--3--3--3--2--2--2--0|                        -|-

G||---------------|--------------| -|-
D||---------------|--0-0--------0|  |
A||--3--3--------3|-------0--0---|  |
E||--------3--3---|--------------|  |
                                    |
G||------------------------------|  |
D||--2--2--------2--2--2--------2|  |
A||--------2--2-----------2--2---|  |
E||------------------------------|  |
                                    | Repetir
G||---------------|--------------|  | hasta
D||---------------|--0-0--------0|  | terminar
A||--3--3--------3|-------0--0---|  |
E||--------3--3---|--------------|  |
                                    |
                                    |
G||-----------------------|         |
D||-----------------------|         |
A||-----------------------|         |
E||--3--3-3-3-3-3--3-3-3-3|        -|-
Suggest correction
Give kudos to tab author, rate the tab!
1 2 3 4 5
comments
print report bad tab
guest
You may want to rate the tab now too:
select rating
Wanna post a correction for this tab? Suggest correction