Oops, an error
Loading. Please wait.

Nuestro Don Bass Tab

17 views 1 this week
no commentswrite comment
1 2 3 4 5
3 more votes to show rating
add to favorites
launch autoscroll
font size
0
reset
guitar tuner
×
Best way to learn
"Nuestro Don"
Autoscroll
slow
fast
+/-
esc
set tempo
stop
NOTA: Hay que bajar la cuarta cuerda a Re, bueno pues esta queda así...

Intro

G||------------------------------------------------|
D||------------------------------------------------|
A||-----666-----6-----66--6-----444-----4-----44--4|
E||--6-------6-----6---------4-------4-----4-------|

G||-----------------------|
D||-----------------------|
A||-----666-----6-?6---6--|
E||--6-------6-----------4|

Ha pasado un buen tiempo?
G||----------------|-------|------------------------------| -|-
D||----------------|-------|------------------------------|  |
A||--22--00--------|-------|------44--4-----------44-----4|  | x4
E||----------66--22|--22--2|--44---------4--2--4------4---| -|-

   Este reggae que hace parte de mi?
G||------------------------| -|-
D||------------------------|  |
A||-----666----------------|  | x3
E||--6-------1--4--1--4--44| -|-

G||--------------------|
D||--------------------|
A||-----666--6---------|
E||--6----------7--7--9|

Contigo,contigo,contigo?
G||----------------|-------|------------------------------| -|-
D||----------------|-------|------------------------------|  |
A||--22--00--------|-------|------44--4-----------44-----4|  | x6
E||----------66--22|--22--2|--44---------4--2--4------4---| -|-

Y este reggae que hace parte de mi?
G||------------------------| -|-
D||------------------------|  |
A||-----666----------------|  | x3
E||--6-------1--4--1--4--44| -|-

G||--------------------|
D||--------------------|
A||-----666--6---------|
E||--6----------7--7--9|

Contigo son tuyos, son tuyos?
G||----------------|-------|------------------------------| -|-
D||----------------|-------|------------------------------|  |
A||--22--00--------|-------|------44--4-----------44-----4|  | x9
E||----------66--22|--22--2|--44---------4--2--4------4---| -|-

G||----------------|-------|---------------------|
D||----------------|-------|---------------------| Así termina
A||--22--00--------|-------|------44--4------4---|
E||----------66--22|--22--2|--44---------4------2|
Suggest correction
Give kudos to tab author, rate the tab!
1 2 3 4 5
comments
print report bad tab
guest
You may want to rate the tab now too:
select rating
Wanna post a correction for this tab? Suggest correction