Oops, an error
Loading. Please wait.

Tu Amor Bass

98 views 1 this week
no commentswrite comment
1 2 3 4 5
3 more votes to show rating
add to favorites
×
Save as Personal and add changes to this tab that will be seen only by you. Learn more ›
×
You can save this tab as Personal to edit and correct it or add notes. All changes will be seen only by you. Learn more »
save as personal
new!
launch autoscroll
font size
0
reset
guitar tuner
Autoscroll
slow
fast
+/-
esc
set tempo
stop
Bueno pues esta es una rola facil y chida
de esta banda, dudas haganmelo saber...

Intro

G| |--------------0---------------------|-----------|------------|
D| |-----------1-----3--1--3--1---------|-----------|-----------5|
A| |--------3--------------------3--1--1|--------111|--3-----3---|
E| |--1--1------------------------------|--1--3-----|-----3------|

G| |--------------|------------|--------------|------------------|
D| |-----------555|-----------3|-----------333|-----3--(slide)--2|
A| |--3-----3-----|--1-----1---|--1-----1-----|--3---------------|
E| |-----3--------|-----1------|-----1--------|------------------|

Wooaoaaoaoa?
G| |----------------|----------------|----------------|---------|
D| |--------------33|--------------55|--------------33|---------|
A| |-----------1----|--1-----1--3----|--3-----3--1----|--1-----1|
E| |--1--4--1-------|-----1----------|-----3----------|-----1---|

Libres para expresar?
G| |------------------|---------| -|-
D| |--1--3------------|---------|  |
A| |--------1--3------|---------|  | x8
E| |--------------1--4|--1--1--1| -|-

Amor como tu amor?
G| |----------------|----------------|----------------|---------| -|-
D| |--------------33|--------------55|--------------33|---------|  |
A| |-----------1----|--1-----1--3----|--3-----3--1----|--1-----1|  | x4
E| |--1--4--1-------|-----1----------|-----3----------|-----1---| -|-

Gris es la sociedad de sueños rotos?
G| |------------------|---------| -|-
D| |--1--3------------|---------|  |
A| |--------1--3------|---------|  | x8
E| |--------------1--4|--1--1--1| -|-

Amor como tu amor?
G| |----------------|----------------|----------------|---------| -|-
D| |--------------33|--------------55|--------------33|---------|  |
A| |-----------1----|--1-----1--3----|--3-----3--1----|--1-----1|  | x2
E| |--1--4--1-------|-----1----------|-----3----------|-----1---| -|-

La esperanza es el aire que respiro?
G| |-------------------------|-----------------| -|-
D| |-------------------------|-----------------|  |
A| |--6--6-----44--6-----4--6|--4--4--4--------|  | x3
E| |--------6---------6------|-----------111--4| -|-

G| |-------------------------|-------------------|
D| |-------------------------|--------3--3-------|
A| |--6--6-----44--6-----4--6|--4--4--------44---|
E| |--------6---------6------|------------------4|

Amor como tu amor? (Repetir hasta terminar)
G| |----------------|----------------|----------------|---------|
D| |--------------33|--------------55|--------------33|---------|
A| |-----------1----|--1-----1--3----|--3-----3--1----|--1-----1|
E| |--1--4--1-------|-----1----------|-----3----------|-----1---|

Eso es todo facil no?
Suggest correction
Give kudos to tab author, rate the tab!
1 2 3 4 5
comments
print report bad tab
guest
Wanna post a correction for this tab? Suggest correction