Oops, an error
Loading. Please wait.

Un Beso Y Una Flor Tab

52 views 1 this week
no commentswrite comment
1 2 3 4 5
3 more votes to show rating
add to favorites
launch autoscroll
font size
0
reset
how to read this tab
guitar tuner
×
Best way to learn
"Un Beso Y Una Flor"
Autoscroll
slow
fast
+/-
esc
set tempo
stop
BUEN DIA, ESTE ES MI PRIMERA TRANSCRIPCION AQUI EN LA CUERDA,
EN VERSION DE GONDWANA ESPERO QUE LES SIRVA, ES LA PARTE DEL
SOLO, SOLO FALTA LA PARTE FINAL PERO EN CUANTO LA TENGA SE
LAS COMPLETO

e:---------------------------------------------------------------|
B:---13-14/16-16-16--13-16/18-16-16---------13-16-18-16/18-16/18-|
G:----------------------------------17-15------------------------|
D:---------------------------------------------------------------|
A:---------------------------------------------------------------|
E:---------------------------------------------------------------|

e: ----------------------------------------------------------------|
B: -16-13--------12-14-14/16-14--14-12-11--------------------------|
G: ----------13--------------------------13-----------13-13-----13-|
D: -------13--------------------------------13--13-13--------13----|
A: ----------------------------------------------------------------|
E: ----------------------------------------------------------------|

CUALQUIER DUDA, QUEJA SUGERENCIA LES DEJO
MI CORREO CRADLE_SYS@

ESTA PRIMERA TRANSCRIPCION ES DEDICADA A MI FAMILIA POR TAN
TIEMPO DE SOPORTAR MIS GUITARRAZOS...JAJAJA
Suggest correction
Give kudos to tab author, rate the tab!
1 2 3 4 5
comments
print report bad tab
guest
You may want to rate the tab now too:
select rating
Wanna post a correction for this tab? Suggest correction