Oops, an error
Loading. Please wait.

Verde, Amarillo Y Rojo Bass

283 views 1 this week
no commentswrite comment
1 2 3 4 5
3 more votes to show rating
add to favorites
launch autoscroll
font size
0
reset
guitar tuner
×
Best way to learn
"Verde, Amarillo Y Rojo"
Autoscroll
slow
fast
+/-
esc
set tempo
stop
Agradecimientos a Yaremi Miranda
por la correccion en la primera linea del bajo


Desde el comienzo:

     Mi
G|---------------------------------
D|---------------------------------
A|-------------2-----------2-------
E|---0---0--4--------4-4--6-------

     Sol#m         Fa#m
G|---------------------------------
D|---------------------------------
A|-------------4----------  4-------
E|---2---2--5--------2 ---2 --5---------

   "esta parte de arriba por 8 veces"


Equilibrio en lo....

     Sol#m
G|---------------------------------
D|---------------------------------
A|---------6-6-------6-6-----------
E|---4---4-----4---4-----4---------

creado....

     Do#m
G|---------------------------------
D|---------6-6-------6-6-----------
A|---4---4-----4---4-----4---------
E|---------------------------------

"Esta parte de arriba por 2 veces"

      ...solo igual a la certeza.......mi corazon late por...

    Fa#m                     Si7
G|-------------------------------------------------------
D|-------------------------------------------------------
A|---------4-4-------4-4-----2--2--4--4------------------
E|---2---2-----2---2-----2-------------------------------


ti..eh... CORO:

     Mi
G|---------------------------------
D|---------------------------------
A|-------------2-----------2-------
E|---0---0--4--------0-4-4---------

     Sol#m         Fa#m
G|---------------------------------
D|---------------------------------
A|-------------4-------4---4-------
E|---2---2--5--------5---5---------
Suggest correction
Give kudos to tab author, rate the tab!
1 2 3 4 5
comments
print report bad tab
guest
You may want to rate the tab now too:
select rating
Wanna post a correction for this tab? Suggest correction