Oops, an error
Loading. Please wait.

One Divided tab

208 views 1 this week
no commentswrite comment
1 2 3 4 5
3 more votes to show rating
add to favorites
×
Save as Personal and add changes to this tab that will be seen only by you. Learn more ›
×
You can save this tab as Personal to edit and correct it or add notes. All changes will be seen only by you. Learn more »
launch autoscroll
font size
0
reset
how to read this tab
guitar tuner
edit
Autoscroll
slow
fast
+/-
esc
set tempo
stop
Artist: Gone Is Gone
Song: One Divided
Tuning: CGCFAD

I did whole song by ear, but I think it's correct 

[Intro]
D|-----------------------------|-----------------------------|--------|
A|----5~---6~---10~---11~------|--15~~---10~~---11~~---15~~--|--12~~--|
F|-----------------------------|-----------------------------|--------|
C|-----------------------------|-----------------------------|--------|
G|-----------------------------|-----------------------------|--------|
C|-----------------------------|-----------------------------|--------|

[Verse]
D|-----------------------------|
A|-----------------------------|
F|---4--4----------------------|
C|---------5--5--4--4--4--4----|
G|-----------------------------|  
C|-----------------------------|     x6

[Chorus]
D|-----------------------------|-----------------------------|
A|-----------------------------|-----------------------------|
F|-----------------------------|-----------------------------|
C|---9-9-9-9-9-9-9-9-9-9-7-----|---9-9-9-9-9-9-9-9-9-9-7-----|
G|---9-------------------------|---9-------------------------|
C|---9-------------------------|---9-------------------------|

D|-----------------------------|-----------------------------|
A|-----------------------------|-----------------------------|
F|-----------------------------|-----------------------------|
C|---9-9-9-9-9-9-9-9-9-9-7-----|-----0-0-x-0--0-0-x-0-0------|
G|---9-------------------------|-----0-0-x-0--0-0-x-0-0------|
C|---9-------------------------|-----0-0-x-0--0-0-x-0-0------|      x2

[Verse]
D|-----------------------------|-----------------------------|
A|-----------------------------|-----------------------------|
F|---4--4----------------------|---4--4----------------------|
C|---------5--5--4--4--4--4----|---------5--5--4--4--4--4----|
G|-----------------------------|-----------------------------|
C|-----------------------------|-----------------------------|

D|---------------2-------------|---------------2-------------|
A|---------2--3-----0--3-------|---------2--3-----0--3-------|
F|---4--4----------------------|---4--4----------------------|
C|-----------------------------|-----------------------------|
G|-----------------------------|-----------------------------|
C|-----------------------------|-----------------------------|

[Chorus]
D|-----------------------------|-----------------------------|
A|-----------------------------|-----------------------------|
F|-----------------------------|-----------------------------|
C|---9-9-9-9-9-9-9-9-9-9-7-----|---9-9-9-9-9-9-9-9-9-9-7-----|
G|---9-------------------------|---9-------------------------|
C|---9-------------------------|---9-------------------------|

D|-----------------------------|-----------------------------|
A|-----------------------------|-----------------------------|
F|-----------------------------|-----------------------------|
C|---9-9-9-9-9-9-9-9-9-9-7-----|-----0-0-x-0--0-0-x-0-0------|
G|---9-------------------------|-----0-0-x-0--0-0-x-0-0------|
C|---9-------------------------|-----0-0-x-0--0-0-x-0-0------|      

D|-----------------------------|-----------------------------|
A|-----------------------------|-----------------------------|
F|-----------------------------|-----------------------------|
C|---9-9-9-9-9-9-9-9-9-9-7-----|---9-9-9-9-9-9-9-9-9-9-------|
G|---9-------------------------|---9-------------------8-----|
C|---9-------------------------|---9-------------------------|

D|-----------------------------|-----------------------------|
A|-----------------------------|-----------------------------|
F|-----------------------------|-----------------------------|
C|---9-9-9-9-9-9-9-9-9-9-7-----|-----0-0-x-0--0-0-x-0-0------|
G|---9-------------------------|-----0-0-x-0--0-0-x-0-0------|
C|---9-------------------------|-----0-0-x-0--0-0-x-0-0------| 

[Bridge]
D|----------------------------------|---------------------------------------------|
A|---5/3--5/3--5/3--8/7--8/7--8/7---|---12/10--12/10--12/10--12/11--12/11--12/11--|
F|----------------------------------|---------------------------------------------|
C|----------------------------------|---------------------------------------------|
G|----------------------------------|---------------------------------------------|
C|----------------------------------|---------------------------------------------|

D|----------------------------------|---------------------------------------------|
A|--9/7--9/7--9/7--10/9--10/9--10/9-|--12/10--12/10--12/10--15b--15b--15b--15b----|
F|----------------------------------|---------------------------------------------|
C|----------------------------------|---------------------------------------------|
G|----------------------------------|---------------------------------------------|
C|----------------------------------|---------------------------------------------|

D|-----------------------------|-----------------------------|
A|-----------------------------|-----------------------------|
F|-----------------------------|-----------------------------|
C|---3--3--3--3--0--0--0--0----|---9--9--9--9--4--4--4--4----|
G|---3--3--3--3--0--0--0--0----|---9--9--9--9--4--4--4--4----|
C|---3--3--3--3--0--0--0--0----|---9--9--9--9--4--4--4--4----|

D|-----------------------------|-----------------------------|
A|-----------------------------|-----------------------------|
F|-----------------------------|-----------------------------|
C|---3--3--3--3--0--0--0--0----|--9--9--9--9--11--11--11--11-|
G|---3--3--3--3--0--0--0--0----|--9--9--9--9--11--11--11--11-|
C|---3--3--3--3--0--0--0--0----|--9--9--9--9--11--11--11--11-|

D|----------------------------------|----------------------------------|
A|----------------------------------|----------------------------------|
F|----------------------------------|----------------------------------|
C|--12--12--12--12--15--15--15--15--|--16--16--16--16--11--11--11--11--|
G|--12--12--12--12--15--15--15--15--|--16--16--16--16--11--11--11--11--|
C|--12--12--12--12--15--15--15--15--|--16--16--16--16--11--11--11--11--|

D|-----------------------------|-------------------------|
A|-----------------------------|-------------------------|
F|-----------------------------|-------------------------|
C|---16--16--16--16--16--16----|---19b--19b--19b--19b----|
G|---16--16--16--16--16--16----|---19b--19b--19b--19b----|
C|---16--16--16--16--16--16----|---19b--19b--19b--19b----|

[Break]
D|-----------------------------|-----------------------------|
A|-----------------------------|---7--7--7--7--11-11-11-11---|
F|---13---13---9---9-----------|---7--7--7--7--11-11-11-11---|
C|---13---13---9---9-----------|---9--9--9--9--11-11-11-11---|
G|---11---11---7---7-----------|---9--9--9--9--9--9--9--9----|
C|-----------------------------|-----------------------------|

D|-----------------------------|-----------------------------|
A|-----------------------------|---7--7--7--7--6--6--6--6----|
F|---9---9---7---7-------------|---7--7--7--7--7--7--7--7----|
C|---9---9---7---7-------------|---9--9--9--9--8--8--8--8----|
G|---7---7---5---5-------------|---9--9--9--9--8--8--8--8----|
C|-----------------------------|-----------------------------|

D|----------------------------------|-------------------------------------------|
A|----------------------------------|-------------------------------------------|
F|----------------------------------|-------------------------------------------|
C|--6-6-6-6-6-6-6-6-7-7-7-7-7-7-7-7-|--9-9-9-9-9-9-9-9-11-11-11-11-11-11-11-11--|
G|----------------------------------|-------------------------------------------|
C|----------------------------------|-------------------------------------------|

D|----------------------------------|----------------------------------|
A|----------------------------------|----------------------------------|
F|----------------------------------|----------------------------------|
C|--6-6-6-6-6-6-6-6-7-7-7-7-7-7-7-7-|--9-9-9-9-9-9-9-9-8-8-8-8-8-8-8-8-|
G|----------------------------------|----------------------------------|
C|----------------------------------|----------------------------------|

[Chorus]
D|-----------------------------|-----------------------------|
A|-----------------------------|-----------------------------|
F|-----------------------------|-----------------------------|
C|---9-9-9-9-9-9-9-9-9-9-7-----|---9-9-9-9-9-9-9-9-9-9-------|
G|---9-------------------------|---9-------------------8-----|
C|---9-------------------------|---9-------------------------|

D|-----------------------------|-----------------------------------|
A|-----------------------------|-----------------------------------|
F|-----------------------------|-----------------------------------|
C|---9-9-9-9-9-9-9-9-9-9-------|---11--12--14--15--11--12--14--16--|
G|---9-------------------------|---11--12--14--15--11--12--14--16--|
C|---9-------------------11----|---11--12--14--15--11--12--14--16--|

D|-----------------------------|-----------------------------|
A|-----------------------------|-----------------------------|
F|-----------------------------|-----------------------------|
C|---9-9-9-9-9-9-9-9-9-9-7-----|---9-9-9-9-9-9-9-9-9-9-7-----|
G|---9-------------------------|---9-------------------------|
C|---9-------------------------|---9-------------------------|
                                                              
D|-----------------------------|-----------------------------|
A|-----------------------------|-----------------------------|
F|-----------------------------|-----------------------------|
C|---9-9-9-9-9-9-9-9-9-9-------|---0-0-x-0--0-0-x-0-0--------|
G|---9-------------------------|---0-0-x-0--0-0-x-0-0--------|
C|---9-------------------11----|---0-0-x-0--0-0-x-0-0--------|

[End]
D|-----------------------------|
A|-----------------------------|
F|-----------------------------|
C|---9~~-----------------------|
G|---9~~-----------------------|
C|---9~~-----------------------|


*****************************************

~  -  vibrato (or long note)
x  -  dead note
/  -  slide
b  -  bend

*****************************************

            
            
Suggest correction
Creating personal tab
Creating personal tab
You can edit any tab online and save it as your Personal.

You can edit, replace or remove any tab part or add personal notes – all changes will be seen only by you.

Personal tabs can be accessed anytime from any device, even offline.
Learn more »
Give kudos to tab author, rate the tab!
1 2 3 4 5
comments
print report bad tab
guest
You may want to rate the tab now too:
select rating
Wanna post a correction for this tab? Suggest correction