Oops, an error
Loading. Please wait.

Violescent tab

1,747 views 6 this week
no commentswrite comment
1 2 3 4 5
x 7
add to favorites
×
Save as Personal and add changes to this tab that will be seen only by you. Learn more ›
×
You can save this tab as Personal to edit and correct it or add notes. All changes will be seen only by you. Learn more »
launch autoscroll
font size
0
reset
how to read this tab
guitar tuner
edit
Autoscroll
slow
fast
+/-
esc
set tempo
stop
GONE IS GONE
"Violescent"

Tuning: C G C F A D
Tempo: 95 bpm


[Intro]

D|-----------------|
A|-----------------|
F|----14~~---13~~--|
C|-----------------| x4
G|-----------------|
C|-0-------0-------|

D|------------------------------------------|
A|------------------------------------------|
F|------------------------------------------|
C|------------------------------------------| x4
G|------------------------------------------|
C|-12-12-12-12-12-12-12-12-12-10--10--10----|

D|--------------------------|
A|--------------------------|
F|--------------------------|
C|--------------------------| x2
G|-0-0-0-0-0-0-0-0-0--------|
C|-0-0-0-0-0-0-0-0-0--------|


[Verse]

D|---------------------------------|-----------------------------------|
A|---------------------------------|-----------------------------------|
F|---------------------------------|-----------------------------------|
C|-----------------2-2-2-2-2-2-3-2-|-----------------3-3-3-3-3-3-5-3---|
G|-3-3-3-3-3-3-3-3-----------------|-5-5-5-5-5-5-5-5-------------------|
C|---------------------------------|-----------------------------------|

D|---------------------------------|-----------------------------------|
A|---------------------------------|-----------------------------------|
F|---------------------------------|-----------------------------------|
C|-----------------2-2-2-2-2-2-3-2-|-----------------7-7-7-7-3-3-3-3---| x2
G|-3-3-3-3-3-3-3-3-----------------|-5-5-5-5-5-5-5-5-------------------|
C|---------------------------------|-----------------------------------|


[Chorus]

D|-------------------|-------------------------------|
A|-13b14----13b15----|-15-------------15-------------|
F|-------------------|----14-14-14-14----12-12-12-12-| 
C|-------------------|-------------------------------| x2
G|-------------------|-------------------------------|
C|-------------------|-------------------------------|

D|-------------------|-------------------------------|
A|-13b14-------------|-15-------------15-------------|
F|-------------------|----14-14-14-14----12-12-12-12-|
C|----------10b12----|-------------------------------| x2
G|-------------------|-------------------------------|
C|-------------------|-------------------------------|


[After Chorus]

D|------------|-------------|------|
A|------------|-------------|------|
F|-8--7-------|-------------|------|
C|-------8--7-|-------------|------|
G|------------|-10--9-------|-0----|
C|------------|--------1--0-|-0----|


[Verse 2]

D|---------------------------------|-----------------------------------|
A|---------------------------------|-----------------------------------|
F|---------------------------------|-----------------------------------|
C|-----------------2-2-2-2-2-2-3-2-|-----------------3-3-3-3-3-3-5-3---|
G|-3-3-3-3-3-3-3-3-----------------|-5-5-5-5-5-5-5-5-------------------|
C|---------------------------------|-----------------------------------|

D|---------------------------------|-----------------------------------|
A|---------------------------------|-----------------------------------|
F|---------------------------------|-----------------------------------|
C|-----------------2-2-2-2-2-2-3-2-|-----------------7-7-7-7-3-3-3-3---|
G|-3-3-3-3-3-3-3-3-----------------|-5-5-5-5-5-5-5-5-------------------|
C|---------------------------------|-----------------------------------|

D|---------------------------------|-----------------------------------|
A|---------------------------------|-----------------------------------|
F|---------------------------------|-----------------2-2-2-2-2-2-3-2---|
C|-----------------2-2-2-2-2-2-3-2-|-3-3-3-3-3-3-3-3-------------------|
G|-3-3-3-3-3-3-3-3-----------------|-----------------------------------|
C|---------------------------------|-----------------------------------|

D|---------------------------------|-----------------------------------|
A|---------------------------------|-----------------------------------|
F|-----------------5-5-5-5-5-5-5-5-|-7-7-7-7-7-7-7-7-------------------|
C|-5-5-5-5-5-5-5-5-----------------|-----------------3-3-3-3-2-2-2-2---|
G|---------------------------------|-----------------------------------|
C|---------------------------------|-----------------------------------|

D|---------------------------|
A|---------------------------|
F|---------------------------|
C|-3--3--3--3--3--3--3--3----|
G|-1--1--1--1--1--1--1--1----|
C|---------------------------|


[Chorus]

D|-------------------|----------------------------|
A|-13b14----13b15----|-15-------------15----------|
F|-------------------|----14-14-14-14----12-12-12-|
C|-------------------|----------------------------| x2
G|-------------------|----------------------------|
C|-------------------|----------------------------|

D|-------------------|----------------------------|
A|-13b14-------------|-15-------------15----------|
F|-------------------|----14-14-14-14----12-12-12-|
C|----------10b12----|----------------------------| x2
G|-------------------|----------------------------|
C|-------------------|----------------------------|


[After Second Chorus]

D|-------------|--------------|-------------|-------------|
A|-------------|--------------|-------------|-------------|
F|-8--7--------|--------------|-8--7--------|-------------|
C|-------8--7--|--------------|-------8--7--|-------------|
G|-------------|-10--9--------|-------------|-8--7--------|
C|-------------|--------8--7--|-------------|-------8--7--|

   Gtr I
D|-------------|--------------|-------------|-------------|
A|-9--8--------|--------------|-9--8--------|-------------|
F|-------9--8--|--------9--8--|-------9--8--|-------------|
C|-------------|--8--7--------|-------------|-8--7--------|
G|-------------|--------------|-------------|-------8--7--|
C|-------------|--------------|-------------|-------------|
 |
 | Gtr II
D|-------------|--------------|-------------|-------------|
A|-------------|--------------|-------------|-------------|
F|-8--7--------|--------------|-8--7--------|-------------|
C|-------8--7--|--------------|-------8--7--|-------------|
G|-------------|-10--9--------|-------------|-8--7--------|
C|-------------|--------8--7--|-------------|-------8--7--|


[Bridge]

D|----------------|------------------|
A|----------------|------------------|
F|--------12--14--|-----------10--9--|
C|----------------|------------------| x2
G|-0--0-0---------|-10--10-10--------|
C|-0--0-0---------|-10--10-10--------|

D|----------------|-------------------|----------------|-------------------|
A|----------------|-------------------|----------------|-----------14--16--|
F|--------12--14--|-----------14--15--|--------15--17--|-------------------|
C|----------------|-------------------|----------------|-------------------|
G|-0--0-0---------|-10--10-10---------|-0--0-0---------|-10--10-10---------|
C|-0--0-0---------|-10--10-10---------|-0--0-0---------|-10--10-10---------|


  [Solo]

(Tremolo picking 16th note triplets throughout)

D|-18---17---15---14---|-17-14-17-14---15-10-15-10---|
A|---------------------|-----------------------------|
F|---------------------|-----------------------------|
C|---------------------|-----------------------------|
G|---------------------|-----------------------------|
C|---------------------|-----------------------------|

D|-18---17---15---14---|-15-17-18-15---15-14-17-14---|
A|---------------------|-----------------------------|
F|---------------------|-----------------------------|
C|---------------------|-----------------------------|
G|---------------------|-----------------------------|
C|---------------------|-----------------------------|

D|-18---20---17---18---|-20-22-20-18--17--15-17-18-17---|
A|---------------------|--------------------------------|
F|---------------------|--------------------------------|
C|---------------------|--------------------------------|
G|---------------------|--------------------------------|
C|---------------------|--------------------------------|

D|-------------------|-15----15-17-15----15------|
A|-13--15--18--15-18-|----18----------18----15---|
F|-------------------|---------------------------|
C|-------------------|---------------------------|
G|-------------------|---------------------------|
C|-------------------|---------------------------|


  [Final Chorus]

D|-------------------|-------------------------------|
A|-13b14----13b15----|-15-------------15-------------|
F|-------------------|----14-14-14-14----12-12-12----|
C|-------------------|-------------------------------| x2
G|-------------------|-------------------------------|
C|-------------------|-------------------------------|

D|-------------------|-----------------------------------|
A|-13b14----13b15----|-17-15--15-15----15-------15-------|
F|-------------------|--------------16----14-16----14----|
C|-------------------|-----------------------------------|
G|-------------------|-----------------------------------|
C|-------------------|-----------------------------------|

D|-------------------|-------------------------------|
A|-15b16-------------|-15-------------15-------------|
F|-------------------|----14-14-14-14----12-12-12----|
C|----------10b12----|-------------------------------|
G|-------------------|-------------------------------|
C|-------------------|-------------------------------|


  [Outro]

D|------------------------------------------|
A|------------------------------------------|
F|------------------------------------------|
C|------------------------------------------| x4
G|------------------------------------------|
C|-12-12-12-12-12-12-12-12-12-10--10--10----|

D|-----------------|
A|-----------------|
F|----14~~---13~~--|
C|-----------------| x4
G|-----------------|
C|-0-------0-------|

D|-------------|-------------------|-------------------|-------------------|
A|-------------|-------------------|-------------------|-------------------|
F|-------------|-------------------|-------------------|-------------------|
C|-------------|-------------------|-------------------|-------------------|
G|-0--0--0--0--|-12~~12~~12~~12~~--|-12~~12~~12~~12~~--|-12~~12~~12~~12~~--|
C|-0--0--0--0--|--0---0---0---0----|--0---0---0---0----|--0---0---0---0----|


*********************************** 
| b   bend
| ~   vibrato 
***********************************

            
            
Suggest correction
Creating personal tab
Creating personal tab
You can edit any tab online and save it as your Personal.

You can edit, replace or remove any tab part or add personal notes – all changes will be seen only by you.

Personal tabs can be accessed anytime from any device, even offline.
Learn more »
comments
print report bad tab
guest
You may want to rate the tab now too:
select rating
Wanna post a correction for this tab? Suggest correction