Oops, an error
Loading. Please wait.

Born Bad bass

version 1
version 1

Whole song

Interactive

546 views 1 this week
1 commentread comment
1 2 3 4 5
3 more votes to show rating
add to favorites
×
Save as Personal and add changes to this tab that will be seen only by you. Learn more ›
×
You can save this tab as Personal to edit and correct it or add notes. All changes will be seen only by you. Learn more »
launch autoscroll
font size
0
reset
guitar tuner
edit
Autoscroll
slow
fast
+/-
esc
set tempo
stop
Here the Born Bad bass tab
Author: BlackDaniel & Francis.F.

titol: Born Bad
from: Bone to Pick
performed by Gone Jackals

This tab is for 4-String Bass

main riff
F#|-----------------|-----------------|
C#|-----------------|-----------------|
G#|-----------------|-----------------|
D#|-0-0-0-0-3-3-3-3-|-0-0-0-3-3-3-3-3-|

sometimes (!) the bass plays some higher notes in the main riff (the second bar), it goes like this:

F#|-----------------|-----------------|
C#|-----------------|-----------------|
G#|-----------------|-------------5-7-|
D#|-0-0-0-0-3-3-3-3-|-0-0-0-3-3-0-----|


riff 2
F#|-----------------|-----------------|
C#|-----------------|-----------------|
G#|-----------------|-----------------|
D#|-2-2-2-2-5-5-5-5-|-2-2-2-5-5-5-5-5-|


bridge1
F#|---------------|
C#|---------------|
G#|---------------|
D#|-7-6-5-4-3-2-1-|

bridge2
F#|---------------|
C#|---------------|
G#|---------------|
D#|-0-3-5-6-5-3-0-|


This song is very easy to play and you couldn't find any difficult to understand 
the song's structure.
However if you have any problem or if the tabs are incorrect send me an 
e-mail to blackdaniel@ngi.it

            
            
Suggest correction
Creating personal tab
Creating personal tab
You can edit any tab online and save it as your Personal.

You can edit, replace or remove any tab part or add personal notes – all changes will be seen only by you.

Personal tabs can be accessed anytime from any device, even offline.
Learn more »
Give kudos to tab author, rate the tab!
1 2 3 4 5
comments
print report bad tab
1 comment total.
0 reply
PelzR 3,675 Dec 27, 2012 02:30 PM

Just some small corrections to this tab:

- the real tuning for this one is "a helf step down" (D# G# C# F#)
- bridge1 is played like this

F#|---------------|
C#|---------------|
G#|---------------|
D#|-7-6-5-4-3-2-1-|


- sometimes (!) the bass plays some higher notes in riff 1 (the second bar), it goes like this:
F#|-----------------|-----------------|
C#|-----------------|-----------------|
G#|-----------------|-------------5-7-|
D#|-0-0-0-0-3-3-3-3-|-0-0-0-3-3-0-----|

guest
Wanna post a correction for this tab? Suggest correction