Oops, an error
Loading. Please wait.

Acoustic 3 Tab

version 1
version 1

Whole song

Interactive

Video

87,247 views 72 this week
8 commentsread comments
1 2 3 4 5
x 19
add to favorites
launch autoscroll
font size
0
reset
how to read this tab
guitar tuner
Autoscroll
slow
fast
+/-
esc
set tempo
stop
Author
(Gtr 1) (E A D G B E) - 'Untitled'

(4/4)
(Gtr 1)
     E E E E E E E E  (3x)     E E E E E E E E (4x) E E E E E E E E
e|--------------------|-|-------------------|--------------------|
B|o------------------o|-|o-----------------o|--------------------|
G|-------0-----0------|-|------------0------|-----0-----0--------|
D|-----------0---0----|-|------0---0---0----|---------0---0------|
A|o----2---3-------2-o|-|o---2---3-------2-o|---2---3-------2----|
E|---3----------------|-|--3----------------|-3------------------|

                         <
    E E E E E E E E (3x) E E E E E E E E
e|-------------------|-----------------|
B|o-----------------o|-----------------|
G|------------0------|-----0-----0-----|
D|------0---0---0----|---------0---0---|
A|o---2---3-------2-o|---2---3-------2-|
E|--3----------------|-3---------------|

    E E E E E E E E   E E E E E E E E     (4x)
e|------------------|---------------------|
B|o-----3-----3-----|--------------------o|
G|----2-----0---0---|-----0-----0---------|
D|--0-----2-------2-|---0-----------------|
A|o-----------------|-3-------2---2------o|
E|------------------|-------3-------3-----|

    E E E E E E E E     E E E E E E e e
e|-------------------|-----------------|
B|o-----------------o|-----------------|
G|------0-----0------|-----0-----0-----|
D|----------0---0----|---------0---0-0-|
A|o---2---3-------2-o|---2---3---------|
E|--3----------------|-3---------------|

    E E E E E E E E  (4x)  E E E E E E E E
e|-------------------|------------------|
B|o-----------------o|------------------|
G|------0-----0------|-----0-----0------|
D|----------0---0----|---------0---0-0--|
A|o---2---3-------2-o|---2---3----------|
E|--3----------------|-3----------------|

     <
     E E E E E E E E         E E E E E E E E   E E E E E E E E  (4x)
e|-------------------|-|------------------|------------------|----|
B|o-----------------o|-|o-----3-----3-----|-----------------o|----|
G|------0-----0------|-|----2-----0---0---|-----0-----0------|----|
D|----------0---0----|-|--0-----2-------2-|---0--------------|----|
A|o---2---3-------2-o|-|o-----------------|-3-------2---2---o|----|
E|--3----------------|-|------------------|-------3-------3--|----|

                         <
    E E E E E E E E (9x) E E E E E E E E
e|-------------------|-----------------|
B|o-----------------o|-----------------|
G|------0-----0------|-----------0-----|
D|----------0---0----|-----0---0---0---|
A|o---2---3-------2-o|---2---3-------2-|
E|--3----------------|-3---------------|

    E E E E E E E E   E E E E E E E E   (4x)
e|------------------|-------------------|
B|o-----3-----3-----|------------------o|
G|----2-----0---0---|-----0-----0-------|
D|--0-----2-------2-|---0---------------|
A|o-----------------|-3-------2---2----o|
E|------------------|-------3-------3---|

   E E E E E E E E   E E E E E E E E   W
e|-----------------|-----------------|-3--|----|
B|-----------------|-----------------|-3--|----|
G|-----0-----0-----|-----0-----0-----|-0--|----|
D|---------0---0---|---------0---0-0-|-0--|----|
A|---2---3-------2-|---2---3---------|-2--|----|
E|-3---------------|-3---------------|-3--|----|
Suggest correction
comments
print report bad tab
8 comments total. Showing first comments.
0 reply
sperley 15 Dec 08, 2003 07:00 PM

Extremely good job. I applaud you in your efforts. Very nice.

0 reply
Boy_Named_Goo89 103 Mar 18, 2004 07:00 PM

Great job, but it's the 1998 album, Dizzy Up The Girl. Otherwise your tab is superb.

0 reply
ryancoster411 10 Jan 23, 2006 06:41 PM

good tab, props

guest
You may want to rate the tab now too:
select rating
Wanna post a correction for this tab? Suggest correction