Oops, an error
Loading. Please wait.

Amigone Bass Tab

702 views 1 this week
1 commentread comment
1 2 3 4 5
please rate
add to favorites
launch autoscroll
font size
0
reset
guitar tuner
Autoscroll
slow
fast
+/-
esc
set tempo
stop
Help us to improve Ultimate-Guitar.com Take our survey!
×
Author
Difficulty
intermediate
----------------------------------------------------------------------------
			     AMIGONE - The Goo Goo Dolls
----------------------------------------------------------------------------

Tabbed By : GodOfBass208
e-mail: godofbass20@gmail.com

Tuning: E D A G (STANDARD)

Intro/Chorus: x2
G|-------------------------------------------------------------------|
D|-------676---------------------------------------------------------|
A|----7-7---7----6-6-----898-------------4-4-------------------------|
E|------------7-7---7-9-9---9-4-42-24-5-5---5-0-00-00xx7xx7xx7xx7----|

Pre-Verse: x4
G|-------------------------|
D|-------------------------|
A|-------------------------|
E|----0-07-7-5--55-5-55----|
(4th time play only 1st A (E5))

Verse: x2
G|---------------------------------------------------------|
D|---------------------------------------------------------|
A|---------------------------------------------------------|
E|----0-------7-------9-------4-------5-------0-------7----|

Pre-Chorus:
G|--------------------------------|
D|--------------------------------|
A|--------------------------------|
E|----xx7xx7xx7xx7xx7xx7xx7xx7----|

Intro/Chorus: x2
Pre-Verse x4
Verse: x1
Pre-Chorus: x1
Intro/Chorus: x2

Interlude:
G|-------------------------------------------------------------------------|
D|-------------------------------------------------------------------------|
A|-------------------------------------------------------------------------|
E|----0000-000000000005555-555555555550000-000000077775555-555555555555----|

Intro/Chorus: x4

End On Open E


| x  Mute note
============================================================================
Suggest correction
Give kudos to tab author, rate the tab!
1 2 3 4 5
comments
print report bad tab
1 comment total.
0 reply
higher4ground 10 wrote on September 28 2007, 06:14 am

Great tab. *Puts thumb up*

guest
You may want to rate the tab now too:
select rating
Wanna post a correction for this tab? Suggest correction