Oops, an error
Loading. Please wait.

Before Its Too Late Bass Tab

version 1
version 1

Whole song

Interactive

2,521 views 1 this week
3 commentsread comments
1 2 3 4 5
x 4
add to favorites
launch autoscroll
font size
0
reset
guitar tuner
Autoscroll
slow
fast
+/-
esc
set tempo
stop
Help us to improve Ultimate-Guitar.com Take our survey!
×
Author
Difficulty
novice
Goo Goo Dolls - Before its too late

This is a new track from my favourite band The Goo Goo Dolls!! There are already a 
of guitar tabs on the site but Duff91s tab is by far the closest so this Bass tab is for that 
Goodluck Enjoy my friends!!!!

Intro/verses:
G|----------------------------------------------------|
D|----------------------------------------------------|
A|----------------------------------------------------|
E|----1------3------5------3------5-------3------1----|

(After the verse hit a C note a couple of times to break into the chorus)
G|--------------|
D|--------------|
A|--3-3-3-3-3---|
E|--------------|

Chorus:
G|--------------------------------|
D|--------------------------------|
A|--------------------------------|
E|---1---3---5---1----1---3---5---|

G|--------------------------------|
D|--------------------------------|
A|----------------------------3---|
E|---1---3---5---1----1---3-------|

Bridge:
(No Bass Have a rest u bass players)

Song Order:

Intro:

Verse:

Chorus:

Verse:

Chorus:

Bridge:

Chorus(x3)              I hope u all enjoy...
Suggest correction
comments
print report bad tab
3 comments total.
0 reply
Duff91 175 Jul 05, 2007 09:07 AM

Haha great tab!

0 reply
screaming_angel 223 Dec 12, 2007 10:42 AM

cool...good song...easy tab lol

0 reply
rfreak233 21 Dec 29, 2007 09:10 PM

i made up my own part to this song that is based off this tab... it hasnt been approved yet... but thanks anyways for
doing this one

guest
You may want to rate the tab now too:
select rating
Wanna post a correction for this tab? Suggest correction