Oops, an error
Loading. Please wait.

Before Its Too Late Tab

version 1
version 1

Solo

Whole song

Interactive

6,267 views 1 this week
no commentswrite comment
1 2 3 4 5
2 more votes to show rating
add to favorites
launch autoscroll
font size
0
reset
how to read this tab
guitar tuner
Autoscroll
slow
fast
+/-
esc
set tempo
stop
Help us to improve Ultimate-Guitar.com Take our survey!
×
Author
Difficulty
no one on here tabbed out the little guitar part for the chorus and it was infuriating 
i did it really quick...its not hard...the rythym is just a little strange so listen to 
song....

e----10-----10------8-----8---------|
B--------8----8--8-----8---8--8-----|
G-----------------------------------|     x4
D-----------------------------------|
A-----------------------------------|
E-----------------------------------|
and then he does this:
e----8-----8------10-----8----------|
B--------8---8--8-----8---8--8------|
G-----------------------------------|     x1
D-----------------------------------|
A-----------------------------------|
E-----------------------------------|

e----10-----10------8-----8---------|
B--------8----8--8-----8---8--8-----|
G-----------------------------------|     x4
D-----------------------------------|
A-----------------------------------|
E-----------------------------------|
and thats the whole chorus...

and the acoustic bridge part wasnt tabbed correctly either so here it is....
   Am              F                 G                F
|--3---------------3-----------------3----------------3------------|
|--1---------------1-----------------3----------------1------------|
|--2---------------2-----------------0----------------2------------|
|--2---------------3-----------------0----------------3------------|
|------------------------------------2-----------------------------|
|------------------------------------3-----------------------------|
  Am               F                 G
|--3---------------3-----------------3----------------------------|
|--1---------------1-----------------3----------------------------|
|--2---------------2-----------------0----------------------------|
|--2---------------3-----------------0----------------------------|
|------------------------------------2----------------------------|
|------------------------------------3----------------------------|

   Am              F                 G                F
|--3---------------3-----------------3----------------3------------|
|--1---------------1-----------------3----------------1------------|
|--2---------------2-----------------0----------------2------------|
|--2---------------3-----------------0----------------3------------|
|------------------------------------2-----------------------------|
|------------------------------------3-----------------------------|

  Am               G                 F
|--3---------------3-----------------3----------------------------|
|--1---------------3-----------------1----------------------------|
|--2---------------0-----------------2----------------------------|
|--2---------------0-----------------3----------------------------|
|------------------2----------------------------------------------|
|------------------3----------------------------------------------|

awesome song...awesome movie...enjoy
Suggest correction
Give kudos to tab author, rate the tab!
1 2 3 4 5
comments
print report bad tab
guest
You may want to rate the tab now too:
select rating
Wanna post a correction for this tab? Suggest correction