Oops, an error
Loading. Please wait.

Before Its Too Late Tab

version 1
version 1

Whole song

Interactive

16,072 views 1 this week
9 commentsread comments
1 2 3 4 5
excellent!
x 4
add to favorites
launch autoscroll
font size
0
reset
how to read this tab
guitar tuner
Tab Pro tools
  • play this tab
  • loop segment
  • change instrument
  • show fretboard
  • metronome
×
Best way to learn
"Before Its Too Late"
Autoscroll
slow
fast
+/-
esc
set tempo
stop
Contributor
Difficulty
intermediate
Goo Goo Dolls - Before its too late


I don't know if this is 100% correct but it sounds pretty
good to me.. Enjoy! 


Listen to the song to get the timing right.


Intro/Verse 1



|--3-------------|-3--------------|--3-------------|--3-------------|
|--1-------------|-3--------------|--1-------------|--3-------------|
|--2-------------|-0--------------|--2-------------|--0-------------|
|--3-------------|-0--------------|--2-------------|--0-------------|
|----------------|-2--------------|----------------|--2-------------|
|----------------|-3--------------|----------------|--3-------------| 
   
                                                   
                                                   *
|--3-------------|-3--------------|--3-------------|--3-------------|
|--1-------------|-3--------------|--1-------------|--1-------------|
|--2-------------|-0--------------|--2-------------|--2-------------|
|--3-------------|-0--------------|--3-------------|--3-------------|
|----------------|-2--------------|----------------|----------------|
|----------------|-3--------------|----------------|----------------| 


* At the end of the verse play a muted C5


Chorus

F5       G5       A5        F5
Hold on before it's too late

F5      G5          A5
Until we leave this behind

F5      G5       A5        F5
Don't fall just be who you are

F5               G5           C5
It's all that we need in our lives




Verse 2 (same as verse 1)




Chorus 





Bridge (Strum the chords)


|--3-------------|-3--------------|--3-------------|--3-------------|
|--1-------------|-1--------------|--3-------------|--1-------------|
|--2-------------|-0--------------|--0-------------|--2-------------|
|--2-------------|-2--------------|--0-------------|--3-------------|
|----------------|-3--------------|--2-------------|----------------|
|----------------|----------------|--3-------------|----------------| 


|--3-------------|-3--------------|--3-------------|--3-------------|
|--1-------------|-1--------------|--3-------------|--3-------------|
|--2-------------|-0--------------|--0-------------|--0-------------|
|--2-------------|-2--------------|--0-------------|--0-------------|
|----------------|-3--------------|--2-------------|--2-------------|
|----------------|----------------|--3-------------|--3-------------| 


|--3-------------|-3--------------|--3-------------|--3-------------|
|--1-------------|-1--------------|--3-------------|--1-------------|
|--2-------------|-0--------------|--0-------------|--2-------------|
|--2-------------|-2--------------|--0-------------|--3-------------|
|----------------|-3--------------|--2-------------|----------------|
|----------------|----------------|--3-------------|----------------| 


|--3-------------|-3--------------|--3-------------|----------------|
|--1-------------|-3--------------|--1-------------|----------------|
|--2-------------|-0--------------|--0-------------|----------------|
|--2-------------|-0--------------|--2-------------|----5555555555--|
|----------------|-2--------------|--3-------------|----3333333333--|
|----------------|-3--------------|----------------|----------------| 


Chorus x2


End


F5            G5          A5
Its all that need in my life x2

comments
print report bad tab
9 comments total. Showing first comments.
0 reply
un_stairway wrote on July 26 2007, 05:40 am

what chord is f5, g5, a5 and the other chords with numbers???

0 reply
Duff91 wrote on July 30 2007, 08:36 am

They're power chords, they're played lyk this...

F5 G5 A5 C5
e|-----|-----|-----|-----|
B|-----|-----|-----|-----|
G|-----|-----|-----|--5--|
D|--3--|--5--|--7--|--5--|
A|--3--|--5--|--7--|--3--|
E|--1--|--3--|--5--|-----|

0 reply
cbur wrote on August 1 2007, 01:16 pm

no criticism here whatsoever, but are you sure its standard tuning cuz i know they usually hav that dadaad tuning they like to use on their songs

I want to post or [tab]
guest
You may want to rate the tab now too:
select rating
Please do not post tabs as comments. Select "correction" instead!