Oops, an error
Loading. Please wait.

Before Its Too Late Bass Tab

version 2
version 2

Whole song

Interactive

1,139 views 1 this week
2 commentsread comments
1 2 3 4 5
1 last vote to show rating
add to favorites
launch autoscroll
font size
0
reset
guitar tuner
Autoscroll
slow
fast
+/-
esc
set tempo
stop
Help us to improve Ultimate-Guitar.com Take our survey!
×
Author
Difficulty
novice
Band: Goo Goo Dolls
Song: Before It's Too Late
Album: Singel/Tranformers Album

This is a great song from a great band! Goo Goo Dolls made this song to the movie 
and it's also called "Goo Goo Dolls - Before It's Too Late (Sam and Mikaela's Theme)"
So, here you have the basic tabs, just listen a bit closer to the song for adjustments 
timing, but I think you'll handel it pretty well. It's a easy song to play! Enjoy!

Intro: (00:00)
G|-----|-----|-----|-----|-----|-----|-----|
D|-----|-----|-----|-----|-----|-----|-----|
A|-----|-----|-----|-----|-----|-----|-----|
E|--1--|--3--|--5--|--3--|--1--|--3--|--1--|

Verse 1: (00:11)
G|-----|-----|-----|-----|-----|-----|-----|
D|-----|-----|-----|-----|-----|-----|-----|
A|-----|-----|-----|-----|-----|-----|-----|
E|--1--|--3--|--5--|--3--|--1--|--3--|--1--|

G|-----|-----|-----|-----|-----|-----|-------------|
D|-----|-----|-----|-----|-----|-----|-------------|
A|-----|-----|-----|-----|-----|-----|--3-3-3-3-3--|
E|--1--|--3--|--5--|--3--|--1--|--3--|-------------|

Chorus: (00:33)
G|----------|---------|---------|---------|---------|---------|----------|
D|----------|---------|---------|---------|---------|---------|----------|
A|----------|---------|---------|---------|---------|---------|----------|
E|--1-1-1-1-|-3-3-3-3-|-5-5-5-5-|-1-1-1-1-|-1-1-1-1-|-3-3-3-3-|-5-5-5-5--|

G|----------|---------|---------|---------|---------|---------|----------|
D|----------|---------|---------|---------|---------|---------|----------|
A|----------|---------|---------|---------|---------|---------|-3-3-3-3--|
E|--1-1-1-1-|-3-3-3-3-|-5-5-5-5-|-1-1-1-1-|-1-1-1-1-|-3-3-3-3-|----------|

Verse 2: (00:55)
G|-----|-----|-----|-----|-----|-----|-----|
D|-----|-----|-----|-----|-----|-----|-----|
A|-----|-----|-----|-----|-----|-----|-----|
E|--1--|--3--|--5--|--3--|--1--|--3--|--1--|

G|-----|-----|-----|-----|-----|-----|-------------|
D|-----|-----|-----|-----|-----|-----|-------------|
A|-----|-----|-----|-----|-----|-----|--3-3-3-3-3--|
E|--1--|--3--|--5--|--3--|--1--|--3--|-------------|

Chorus: (01:17)
G|----------|---------|---------|---------|---------|---------|----------|
D|----------|---------|---------|---------|---------|---------|----------|
A|----------|---------|---------|---------|---------|---------|----------|
E|--1-1-1-1-|-3-3-3-3-|-5-5-5-5-|-1-1-1-1-|-1-1-1-1-|-3-3-3-3-|-5-5-5-5--|

G|----------|---------|---------|---------|---------|---------|----------|
D|----------|---------|---------|---------|---------|---------|----------|
A|----------|---------|---------|---------|---------|---------|-3-3-3-3--|
E|--1-1-1-1-|-3-3-3-3-|-5-5-5-5-|-1-1-1-1-|-1-1-1-1-|-3-3-3-3-|----------|

Bridge: (01:40)
-No Bass-

Chorus: (02:04)
G|----------|---------|---------|---------|---------|---------|----------|
D|----------|---------|---------|---------|---------|---------|----------|
A|----------|---------|---------|---------|---------|---------|----------|
E|--1-1-1-1-|-3-3-3-3-|-5-5-5-5-|-1-1-1-1-|-1-1-1-1-|-3-3-3-3-|-5-5-5-5--|

G|----------|---------|---------|---------|---------|---------|----------|
D|----------|---------|---------|---------|---------|---------|----------|
A|----------|---------|---------|---------|---------|---------|-3-3-3-3--|
E|--1-1-1-1-|-3-3-3-3-|-5-5-5-5-|-1-1-1-1-|-1-1-1-1-|-3-3-3-3-|----------|

Chorus/Outro: (02:27)
G|----------|---------|---------|---------|---------|---------|----------|
D|----------|---------|---------|---------|---------|---------|----------|
A|----------|---------|---------|---------|---------|---------|----------|
E|--1-1-1-1-|-3-3-3-3-|-5-5-5-5-|-1-1-1-1-|-1-1-1-1-|-3-3-3-3-|-5-5-5-5--|

G|----------|---------|---------|---------|---------|---------|----------|
D|----------|---------|---------|---------|---------|---------|----------|
A|----------|---------|---------|---------|---------|---------|----------|
E|--1-1-1-1-|-3-3-3-3-|-5-5-5-5-|-1-1-1-1-|-1-1-1-1-|-3-3-3-3-|-5-5-5-5--|

G|----------|---------|---------|---------|---------|----|
D|----------|---------|---------|---------|---------|----|
A|----------|---------|---------|---------|---------|-3--|
E|--1-1-1-1-|-3-3-3-3-|-5-5-5-5-|-1-1-1-1-|-3-3-3-3-|----|

Thomas Lundesgaard, Norway
Suggest correction
Give kudos to tab author, rate the tab!
1 2 3 4 5
comments
print report bad tab
2 comments total.
+1 reply
medusa1148 142 Apr 08, 2008 03:11 PM

Hey, just wanted to say i think this tab is near perfect and a lot better than the other one which everyone has rated with 5 stars. It just shows that most people who rate a song 5 stars either are deaf or don't have a bass guitar. Well done.

0 reply
Emptyass 693 Apr 08, 2008 04:45 PM

aaaa thank you very much! =)

guest
You may want to rate the tab now too:
select rating
Wanna post a correction for this tab? Suggest correction