Oops, an error
Loading. Please wait.

Before Its Too Late Tab

version 3
version 3

Whole song

Interactive

5,086 views 6 this week
1 commentread comment
1 2 3 4 5
accurate
x 4
add to favorites
launch autoscroll
font size
0
reset
how to read this tab
guitar tuner
Tab Pro tools
  • play this tab
  • loop segment
  • change instrument
  • show fretboard
  • metronome
×
Best way to learn
"Before Its Too Late"
Autoscroll
slow
fast
+/-
esc
set tempo
stop
Contributor
----------------------------------------------------------------------------
                BEFORE IT'S TOO LATE - The Goo Goo Dolls
----------------------------------------------------------------------------
Tabbed by: james
Email: the.masterofpuppets@hotmail.com

Tuning: standard

hooray for a tab by me!!:)

Intro
e|--3~~~~-----3~~~~-----3~~~~-----2~~~---|
B|--1~~~~-----1~~~~-----1~~~~-----1~~~---|
G|--2~~~~-----0~~~~-----2~~~~-----0~~~---|
D|--3~~~~-----0~~~~-----2~~~~-----0~~~---|
A|------------2~~~~-----0~~~~-----2~~~---|
E|------------3~~~~---------------3~~~---|

at 0:04, 0:15, 0:26 etc play this
e|---------3---|
B|---0--1--1---|
G|-------------|
D|-------------|
A|-------------|
E|-------------|

Build upo to chorus:
e|------------------------|
B|------------------------|
G|------------------------|
D|--5-5-5-5-5-5-5-5-5-----|
A|--3-3-3-3-3-3-3-3-3-----|
E|------------------------|

Chorus:
Guitar I:
e|-------------------------------------------|
B|-------------------------------------------|
G|-------------------------------------------|
D|-------------------------------------------|
A|---3--3-3-3--5--5-5-5--7--7-7-7--3--3-3-3--|
E|---1--1-1-1--3--3-3-3--5--5-5-5--1--1-1-1--|

Guitar I:
e|---------------------------------|
B|---------------------------------|
G|---------------------------------|
D|-----------------------5--5-5-5--|
A|---3--3-3-3--5--5-5-5--3--3-3-3--|
E|---1--1-1-1--3--3-3-3------------|

Guitar II:
e|---10---10--10-10----8---8-------10---10--10-10----8---8--------|
B|------8----------------8---8-8------8----------------8---8-8----|
G|----------------------------------------------------------------|
D|----------------------------------------------------------------|
A|----------------------------------------------------------------|
E|----------------------------------------------------------------|

Guitar II:
e|---10---10--10-10----8---8-----------------10---8-|
B|------8----------------8---8-8----------------8---|
G|--------------------------------------------------|
D|---------------------------------------10---------|
A|------------------------------------10------------|
E|----------------------------------8---------------|

Guitar II:
e|---10---10--10-10----8---8-------10---10--10-10----8---8--------|
B|------8-----------------------------8----------------8---8-8----|
G|-----------------------0---0-0----------------------------------|
D|----------------------------------------------------------------|
A|----------------------------------------------------------------|
E|----------------------------------------------------------------|

Guitar II:
e|---10---10--10-10----8---8---------------------|
B|------8----------------8-----------------------|
G|---------------------------0-0------------9----|
D|---------------------------------------10------|
A|------------------------------------10---------|
E|----------------------------------8------------|


Then back to verse and chorus and then bridge:
e|------3-3-----3-3-----3-3-----3-3--------3-3-----3-3-----3-3-----3---3---|
B|------1-1-----1-1-----1-1-----1-1--------1-1-----1-1-----1-1-----1---1---|
G|---2--------0-------0-------2---------2--------0-------0-------0---0---0-|
D|---2--------2-------0-------3---------2--------2-------0-------0---0---0-|
A|---0--------3-------2-----------------0--------3-------2-------2---2---2-|
E|--------------------3----------------------------------3-------3---3---3-|

e|------3-3-----3-3-----3-3-----3-3--------3-3-----3-3---3-3-3-3-3-3--|
B|------1-1-----1-1-----1-1-----1-1--------1-1-----1-1---1-1-1-1-1-1--|
G|---2--------0-------0-------2---------2--------0-------0-0-0-0-0-0--|
D|---2--------2-------0-------3---------2--------2-------0-0-0-0-0-0--|
A|---0--------3-------2-----------------0--------3-------2-2-2-2-2-2--|
E|--------------------3----------------------------------3-3-3-3-3-3--|


Then play the chorus again and theres this lead at 2:46 with some effect
e|----------------------------|
B|----------------------------|
G|------5-5-5-----5-5-5-------|
D|----------------------------|
A|---3---------3--------------|
E|----------------------------|

and thats pretty much all the audible bits, vote and comment

| /  slide up
| \  slide down
| h  hammer-on
| p  pull-off
| ~  vibrato
| +  harmonic
| x  Mute note
============================================================================
comments
print report bad tab
1 comment total.
-2 reply
Greg 7 wrote on April 22 2008, 11:00 am

Very well done. Before this tab i had trouble with the leads that was being played. Especially the chorus solo. Cheers for a good tab

I want to post or [tab]
guest
You may want to rate the tab now too:
select rating
Please do not post tabs as comments. Select "correction" instead!