Oops, an error
Loading. Please wait.

Better Days Bass Tab

version 1
version 1

Whole song

Interactive

4,134 views 3 this week
2 commentsread comments
1 2 3 4 5
excellent!
x 4
add to favorites
launch autoscroll
font size
0
reset
guitar tuner
Tab Pro tools
  • play this tab
  • loop segment
  • change instrument
  • show fretboard
  • metronome
×
Best way to learn
"Better Days"
Autoscroll
slow
fast
+/-
esc
set tempo
stop
Contributor
Difficulty
Intro: No bass

Verse 1:
G|----------------|----------------|----------------|----------------|
D|----------------|----------------|----------------|----------------|
A|-5~-------------|----------------|----------------|----------------|
E|----------------|----------------|-3~-------------|----------------|

G|----------------|----------------|----------------|----------------|
D|----------------|----------------|----------------|----------------|
A|-0~-------------|----------------|-5~-------------|-5-5-5-5-5-5-5-5|
E|----------------|-3~-------------|----------------|----------------|


Chorus 1:
G|----------------|----------------|----------------|----------------|
D|----------------|----------------|----------------|----------------|
A|----------------|----------------|-0-0-0-0-0-0-0-0|-0-0-0-0-0-0-0-0|
E|-3-3-3-3-3-3-3-3|-3-3-3-3-3-3-3-3|----------------|----------------|

G|----------------|----------------|----------------|----------------|
D|----------------|----------------|----------------|----------------|
A|----------------|----------------|-0-0-0-0-0-0-0-0|-0-0-0-0-0-0-0-0|
E|-3-3-3-3-3-3-3-3|-3-3-3-3-3-3-3-3|----------------|----------------|

G|----------------|----------------|----------------|----------------|
D|----------------|----------------|----------------|----------------|
A|-2~-------------|----------------|-5~-------------|----------------|
E|----------------|-3~-------------|----------------|----------------|

G|----------------|----------------|
D|----------------|----------------|
A|-5~-------------|----------------|
E|----------------|----------------|

Verse 2:(play softly)
G|----------------|----------------|----------------|----------------|
D|----------------|----------------|----------------|----------------|
A|-5-5-5-5-5-5-5-5|-5-5-5-5-5-5-5-5|----------------|----------------|
E|----------------|----------------|-3-3-3-3-3-3-3-3|-3-3-3-3-3-3-3-3|

G|----------------|----------------|----------------|----------------|
D|----------------|----------------|----------------|----------------|
A|-0-0-0-0-0-0-0-0|----------------|-5-5-5-5-5-5-5-5|-5-5-5-5-5-5-5-5|
E|----------------|-3-3-3-3-3-3-3-3|----------------|----------------|

G|----------------|----------------|----------------|----------------|
D|----------------|----------------|----------------|----------------|
A|-5-5-5-5-5-5-5-5|-5-5-5-5-5-5-5-5|----------------|----------------|
E|----------------|----------------|-3-3-3-3-3-3-3-3|-3-3-3-3-3-3-3-3|
                                    (play heavier)

G|----------------|----------------|----------------|----------------|
D|----------------|----------------|----------------|----------------|
A|-0-0-0-0-0-0-0-0|----------------|-5-5-5-5-5-5-5-5|-5-5-5-5-5-5-5-5|
E|----------------|-3-3-3-3-3-3-3-3|----------------|----------------|

Chorus 2: 
G|----------------|----------------|----------------|----------------|
D|----------------|----------------|----------------|----------------|
A|----------------|----------------|-0-0-0-0-0-0-0-0|-0-0-0-0-0-0-0-0|
E|-3-3-3-3-3-3-3-3|-3-3-3-3-3-3-3-3|----------------|----------------|

G|----------------|----------------|----------------|----------------|
D|----------------|----------------|----------------|----------------|
A|----------------|----------------|-0-0-0-0-0-0-0-0|-0-0-0-0-0-0-0-0|
E|-3-3-3-3-3-3-3-3|-3-3-3-3-3-3-3-3|----------------|----------------|

G|----------------|----------------|
D|----------------|----------------|
A|-2~-------------|----------------|
E|----------------|-3~-------------|

Bridge:
G|----------------|----------------|----------------|----------------|
D|----------------|----------------|----------------|----------------|
A|-5-5-5-5-5-5-5-5|-5-5-5-5-5-5-5-5|----------------|----------------|
E|----------------|----------------|-3-3-3-3-3-3-3-3|-3-3-3-3-3-3-3-3|

G|----------------|----------------|----------------|----------------|
D|----------------|----------------|----------------|----------------|
A|-0-0-0-0-0-0-0-0|----------------|-5-5-5-5-5-5-5-5|-5-5-5-5-5-5-5-5|
E|----------------|-3-3-3-3-3-3-3-3|----------------|----------------|

G|----------------|----------------|----------------|----------------|
D|----------------|----------------|----------------|----------------|
A|-5-5-5-5-5-5-5-5|-5-5-5-5-5-5-5-5|----------------|----------------|
E|----------------|----------------|-3-3-3-3-3-3-3-3|-3-3-3-3-3-3-3-3|

G|----------------|----------------|----------------|----------------|
D|----------------|----------------|----------------|----------------|
A|-0-0-0-0-0-0-0-0|----------------|-5-5-5-5-5-5-5-5|-5-5-5-5-5-5-5-5|
E|----------------|-3-3-3-3-3-3-3-3|----------------|----------------|

Chorus 3:
G|----------------|----------------|----------------|----------------|
D|----------------|----------------|----------------|----------------|
A|----------------|----------------|-0-0-0-0-0-0-0-0|-0-0-0-0-0-0-0-0|
E|-3-3-3-3-3-3-3-3|-3-3-3-3-3-3-3-3|----------------|----------------|

G|----------------|----------------|----------------|----------------|
D|----------------|----------------|----------------|----------------|
A|----------------|----------------|-0-0-0-0-0-0-0-0|-0-0-0-0-0-0-0-0|
E|-3-3-3-3-3-3-3-3|-3-3-3-3-3-3-3-3|----------------|----------------|

G|----------------|----------------|----------------|----------------|
D|----------------|----------------|----------------|----------------|
A|-2-2-2-2-2-2-2-2|----------------|-5-5-5-5-5-5-5-5|-5-5-5-5-5-5-5-5|
E|----------------|-3-3-3-3-3-3-3-3|----------------|----------------|

Ending:
G|----------------|----------------|----------------|----------------|
D|----------------|----------------|----------------|----------------|
A|-2~-------------|----------------|-5~-------------|----------------|
E|----------------|-3~-------------|----------------|----------------|
comments
print report bad tab
2 comments total.
0 reply
rfreak233 wrote on December 29 2007, 09:11 pm

kinda boring... which means its probably right

0 reply
dshodaw wrote on November 16 2014, 02:28 pm

Correct, and it's a good song ;) Yes, the bassline is a bit boring, but that makes it good for practicing new techniques / learning.

I want to post or [tab]
guest
You may want to rate the tab now too:
select rating
Please do not post tabs as comments. Select "correction" instead!