Oops, an error
Loading. Please wait.

Big Machine Bass Tab

version 2
version 2

Whole song

Interactive

580 views 6 this week
no commentswrite comment
1 2 3 4 5
please rate
add to favorites
launch autoscroll
font size
0
reset
guitar tuner
Autoscroll
slow
fast
+/-
esc
set tempo
stop
Help us to improve Ultimate-Guitar.com Take our survey!
×
Author
Difficulty
intermediate
Band: Goo Goo Dolls.
Name: Big Machine.
Album: Gutterflower.

This is a great song that is probably very underated. There is one tab already on here 
is a really good tab but does need a few minor adjustments so i will correct it.
____________________________________________________________________________

Tuning: D#AGB

(The Bass starts after guitar plays intro once)

Intro:

B|--------------------------------------|
G|--------------------------------------|
A|-1/-----666555-666555-----------------|(X1)
E|-----------------------2-00-44-22-0---|

Verse 1:

B|--------------------------------------|
G|--------------------------------------|
A|--666555-666555-----------------------|
E|------------------4444444-2-----------|

B|--------------------------------------|
G|--------------------------------------|
A|--666555-666555-----------------------|
E|------------------2-00-44-22-0--------|

B|--------------------------------------|
G|--------------------------------------|
A|--666666666666666---------------------|
E|-------------------444444444444-2-----|

B|--------------------------------------|
G|--------------------------------------|
A|--666666666666666---------------------|
E|-------------------2-00-44-22-0-------|

Chorus:

B|----------------------------------------|
G|----------------------------------------|
A|----------------------------------------|(X2)
E|-77777777--22222222--44444444--22222222-|

End Chorus:

B|--------------|
G|--------------|
A|--------------|
E|--7777777777--|

Verse 2:

B|--------------------------------------|
G|--------------------------------------|
A|--666555-666555-----------------------|
E|------------------4444444-2-----------|

B|--------------------------------------|
G|--------------------------------------|
A|--666555-666555-----------------------|
E|------------------2-00-44-22-0--------|

B|--------------------------------------|
G|--------------------------------------|
A|--666666666666666---------------------|
E|-------------------444444444444-2-----|

B|--------------------------------------|
G|--------------------------------------|
A|--666666666666666---------------------|
E|-------------------2-00-44-22-0-------|

Chorus:

B|----------------------------------------|
G|----------------------------------------|
A|----------------------------------------|(X2)
E|-77777777--22222222--44444444--22222222-|

End Chorus:

B|------------------------|
G|------------------------|
A|------------------------|
E|--77777777777777777777--|

Outro:

B|----------------------------|
G|----------------------------|
A|----------------------------|(X5)
E|--7777777777--44444--22222--|
____________________________________________________________________________
Suggest correction
Give kudos to tab author, rate the tab!
1 2 3 4 5
comments
print report bad tab
guest
You may want to rate the tab now too:
select rating
Please do not post tabs as comments. Select "correction" instead!